  0
SECTION
  2
HEADER
  9
$ACADVER
  1
AC1015
  9
$ACADMAINTVER
 70
     6
  9
$DWGCODEPAGE
  3
ANSI_1254
  9
$INSBASE
 10
0.0
 20
0.0
 30
0.0
  9
$EXTMIN
 10
0.0
 20
0.0
 30
0.0
  9
$EXTMAX
 10
279.4
 20
215.9
 30
0.0
  9
$LIMMIN
 10
0.0
 20
0.0
  9
$LIMMAX
 10
279.4
 20
215.9
  9
$ORTHOMODE
 70
     0
  9
$REGENMODE
 70
     1
  9
$FILLMODE
 70
     1
  9
$QTEXTMODE
 70
     0
  9
$MIRRTEXT
 70
     1
  9
$LTSCALE
 40
1.0
  9
$ATTMODE
 70
     1
  9
$TEXTSIZE
 40
3.5
  9
$TRACEWID
 40
1.0
  9
$TEXTSTYLE
  7
Standard
  9
$CLAYER
  8
0
  9
$CELTYPE
  6
ByLayer
  9
$CECOLOR
 62
   256
  9
$CELTSCALE
 40
1.0
  9
$DISPSILH
 70
     0
  9
$DIMSCALE
 40
1.0
  9
$DIMASZ
 40
3.5
  9
$DIMEXO
 40
1.0
  9
$DIMDLI
 40
3.75
  9
$DIMRND
 40
0.0
  9
$DIMDLE
 40
0.0
  9
$DIMEXE
 40
1.0
  9
$DIMTP
 40
0.0
  9
$DIMTM
 40
0.0
  9
$DIMTXT
 40
3.5
  9
$DIMCEN
 40
2.5
  9
$DIMTSZ
 40
0.0
  9
$DIMTOL
 70
     0
  9
$DIMLIM
 70
     0
  9
$DIMTIH
 70
     1
  9
$DIMTOH
 70
     1
  9
$DIMSE1
 70
     0
  9
$DIMSE2
 70
     0
  9
$DIMTAD
 70
     1
  9
$DIMZIN
 70
     0
  9
$DIMBLK
  1

  9
$DIMASO
 70
     1
  9
$DIMSHO
 70
     1
  9
$DIMPOST
  1

  9
$DIMAPOST
  1

  9
$DIMALT
 70
     0
  9
$DIMALTD
 70
     3
  9
$DIMALTF
 40
0.0393700787
  9
$DIMLFAC
 40
1.0
  9
$DIMTOFL
 70
     1
  9
$DIMTVP
 40
0.0
  9
$DIMTIX
 70
     0
  9
$DIMSOXD
 70
     0
  9
$DIMSAH
 70
     0
  9
$DIMBLK1
  1

  9
$DIMBLK2
  1

  9
$DIMSTYLE
  2
ISO-25
  9
$DIMCLRD
 70
     0
  9
$DIMCLRE
 70
     0
  9
$DIMCLRT
 70
     0
  9
$DIMTFAC
 40
1.0
  9
$DIMGAP
 40
1.524
  9
$DIMJUST
 70
     0
  9
$DIMSD1
 70
     0
  9
$DIMSD2
 70
     0
  9
$DIMTOLJ
 70
     0
  9
$DIMTZIN
 70
     0
  9
$DIMALTZ
 70
     0
  9
$DIMALTTZ
 70
     0
  9
$DIMUPT
 70
     0
  9
$DIMDEC
 70
     2
  9
$DIMTDEC
 70
     2
  9
$DIMALTU
 70
     2
  9
$DIMALTTD
 70
     3
  9
$DIMTXSTY
  7
Standard
  9
$DIMAUNIT
 70
     0
  9
$DIMADEC
 70
     2
  9
$DIMALTRND
 40
0.0
  9
$DIMAZIN
 70
     0
  9
$DIMDSEP
 70
    44
  9
$DIMATFIT
 70
     3
  9
$DIMFRAC
 70
     0
  9
$DIMLDRBLK
  1

  9
$DIMLUNIT
 70
     2
  9
$DIMLWD
 70
    -2
  9
$DIMLWE
 70
    -2
  9
$DIMTMOVE
 70
     0
  9
$LUNITS
 70
     2
  9
$LUPREC
 70
     2
  9
$SKETCHINC
 40
1.0
  9
$FILLETRAD
 40
10.0
  9
$AUNITS
 70
     0
  9
$AUPREC
 70
     2
  9
$MENU
  1
.
  9
$ELEVATION
 40
0.0
  9
$PELEVATION
 40
0.0
  9
$THICKNESS
 40
0.0
  9
$LIMCHECK
 70
     0
  9
$CHAMFERA
 40
0.0
  9
$CHAMFERB
 40
0.0
  9
$CHAMFERC
 40
0.0
  9
$CHAMFERD
 40
0.0
  9
$SKPOLY
 70
     0
  9
$TDCREATE
 40
2459741.592579063
  9
$TDUCREATE
 40
2459741.467579063
  9
$TDUPDATE
 40
2459741.592581736
  9
$TDUUPDATE
 40
2459741.467581736
  9
$TDINDWG
 40
0.0000000116
  9
$TDUSRTIMER
 40
0.0000000116
  9
$USRTIMER
 70
     1
  9
$ANGBASE
 50
0.0
  9
$ANGDIR
 70
     0
  9
$PDMODE
 70
     0
  9
$PDSIZE
 40
-1.0
  9
$PLINEWID
 40
0.0
  9
$SPLFRAME
 70
     0
  9
$SPLINETYPE
 70
     6
  9
$SPLINESEGS
 70
     8
  9
$HANDSEED
  5
218
  9
$SURFTAB1
 70
     6
  9
$SURFTAB2
 70
     6
  9
$SURFTYPE
 70
     6
  9
$SURFU
 70
     6
  9
$SURFV
 70
     6
  9
$UCSBASE
  2

  9
$UCSNAME
  2

  9
$UCSORG
 10
0.0
 20
0.0
 30
0.0
  9
$UCSXDIR
 10
1.0
 20
0.0
 30
0.0
  9
$UCSYDIR
 10
0.0
 20
1.0
 30
0.0
  9
$UCSORTHOREF
  2

  9
$UCSORTHOVIEW
 70
     0
  9
$UCSORGTOP
 10
0.0
 20
0.0
 30
0.0
  9
$UCSORGBOTTOM
 10
0.0
 20
0.0
 30
0.0
  9
$UCSORGLEFT
 10
0.0
 20
0.0
 30
0.0
  9
$UCSORGRIGHT
 10
0.0
 20
0.0
 30
0.0
  9
$UCSORGFRONT
 10
0.0
 20
0.0
 30
0.0
  9
$UCSORGBACK
 10
0.0
 20
0.0
 30
0.0
  9
$PUCSBASE
  2

  9
$PUCSNAME
  2

  9
$PUCSORG
 10
0.0
 20
0.0
 30
0.0
  9
$PUCSXDIR
 10
1.0
 20
0.0
 30
0.0
  9
$PUCSYDIR
 10
0.0
 20
1.0
 30
0.0
  9
$PUCSORTHOREF
  2

  9
$PUCSORTHOVIEW
 70
     0
  9
$PUCSORGTOP
 10
0.0
 20
0.0
 30
0.0
  9
$PUCSORGBOTTOM
 10
0.0
 20
0.0
 30
0.0
  9
$PUCSORGLEFT
 10
0.0
 20
0.0
 30
0.0
  9
$PUCSORGRIGHT
 10
0.0
 20
0.0
 30
0.0
  9
$PUCSORGFRONT
 10
0.0
 20
0.0
 30
0.0
  9
$PUCSORGBACK
 10
0.0
 20
0.0
 30
0.0
  9
$USERI1
 70
     0
  9
$USERI2
 70
     0
  9
$USERI3
 70
     0
  9
$USERI4
 70
     0
  9
$USERI5
 70
     0
  9
$USERR1
 40
0.0
  9
$USERR2
 40
0.0
  9
$USERR3
 40
0.0
  9
$USERR4
 40
0.0
  9
$USERR5
 40
0.0
  9
$WORLDVIEW
 70
     1
  9
$SHADEDGE
 70
     3
  9
$SHADEDIF
 70
    70
  9
$TILEMODE
 70
     1
  9
$MAXACTVP
 70
    64
  9
$PINSBASE
 10
0.0
 20
0.0
 30
0.0
  9
$PLIMCHECK
 70
     0
  9
$PEXTMIN
 10
1.0000000000E+20
 20
1.0000000000E+20
 30
1.0000000000E+20
  9
$PEXTMAX
 10
-1.0000000000E+20
 20
-1.0000000000E+20
 30
-1.0000000000E+20
  9
$PLIMMIN
 10
0.0
 20
0.0
  9
$PLIMMAX
 10
420.0
 20
297.0
  9
$UNITMODE
 70
     0
  9
$VISRETAIN
 70
     1
  9
$PLINEGEN
 70
     0
  9
$PSLTSCALE
 70
     1
  9
$TREEDEPTH
 70
  3020
  9
$CMLSTYLE
  2
Standard
  9
$CMLJUST
 70
     0
  9
$CMLSCALE
 40
20.0
  9
$PROXYGRAPHICS
 70
     1
  9
$MEASUREMENT
 70
     1
  9
$CELWEIGHT
370
    -1
  9
$ENDCAPS
280
     0
  9
$JOINSTYLE
280
     0
  9
$LWDISPLAY
290
     1
  9
$INSUNITS
 70
     4
  9
$HYPERLINKBASE
  1

  9
$STYLESHEET
  1

  9
$XEDIT
290
     1
  9
$CEPSNTYPE
380
     0
  9
$PSTYLEMODE
290
     1
  9
$FINGERPRINTGUID
  2
{6b28a999-617a-4d1f-b76c-019639655fe0}
  9
$VERSIONGUID
  2
{FAEB1C32-E019-11D5-929B-00C0DF256EC4}
  9
$EXTNAMES
290
     1
  9
$PSVPSCALE
 40
0.0
  9
$OLESTARTUP
290
     0
  0
ENDSEC
  0
SECTION
  2
CLASSES
  0
CLASS
  1
ACDBDICTIONARYWDFLT
  2
AcDbDictionaryWithDefault
  3
ObjectDBX Classes
 90
        0
280
     0
281
     0
  0
CLASS
  1
VISUALSTYLE
  2
AcDbVisualStyle
  3
ObjectDBX Classes
 90
     4095
280
     0
281
     0
  0
CLASS
  1
MATERIAL
  2
AcDbMaterial
  3
ObjectDBX Classes
 90
     1153
280
     0
281
     0
  0
CLASS
  1
SCALE
  2
AcDbScale
  3
ObjectDBX Classes
 90
     1153
280
     0
281
     0
  0
CLASS
  1
TABLESTYLE
  2
AcDbTableStyle
  3
ObjectDBX Classes
 90
     4095
280
     0
281
     0
  0
CLASS
  1
MLEADERSTYLE
  2
AcDbMLeaderStyle
  3
ACDB_MLEADERSTYLE_CLASS
 90
     4095
280
     0
281
     0
  0
CLASS
  1
SUN
  2
AcDbSun
  3
SCENEOE
 90
     1153
280
     0
281
     0
  0
CLASS
  1
ACDBPLACEHOLDER
  2
AcDbPlaceHolder
  3
ObjectDBX Classes
 90
        0
280
     0
281
     0
  0
CLASS
  1
LAYOUT
  2
AcDbLayout
  3
ObjectDBX Classes
 90
        0
280
     0
281
     0
  0
ENDSEC
  0
SECTION
  2
TABLES
  0
TABLE
  2
VPORT
  5
8
330
0
100
AcDbSymbolTable
 70
     1
  0
VPORT
  5
29
330
8
100
AcDbSymbolTableRecord
100
AcDbViewportTableRecord
  2
*Active
 70
     0
 10
0.0
 20
0.0
 11
1.0
 21
1.0
 12
139.7
 22
107.95
 13
0.0
 23
0.0
 14
10.0
 24
10.0
 15
10.0
 25
10.0
 16
0.0
 26
0.0
 36
1.0
 17
0.0
 27
0.0
 37
0.0
 40
215.9
 41
1.2941176471
 42
50.0
 43
0.0
 44
0.0
 50
0.0
 51
0.0
 71
     0
 72
  2000
 73
     1
 74
     3
 75
     0
 76
     0
 77
     0
 78
     0
281
     0
 65
     1
110
0.0
120
0.0
130
0.0
111
1.0
121
0.0
131
0.0
112
0.0
122
1.0
132
0.0
 79
     0
146
0.0
  0
ENDTAB
  0
TABLE
  2
LTYPE
  5
5
330
0
100
AcDbSymbolTable
 70
     6
  0
LTYPE
  5
14
330
5
100
AcDbSymbolTableRecord
100
AcDbLinetypeTableRecord
  2
ByBlock
 70
     0
  3

 72
    65
 73
     0
 40
0.0
  0
LTYPE
  5
15
330
5
100
AcDbSymbolTableRecord
100
AcDbLinetypeTableRecord
  2
ByLayer
 70
     0
  3

 72
    65
 73
     0
 40
0.0
  0
LTYPE
  5
16
330
5
100
AcDbSymbolTableRecord
100
AcDbLinetypeTableRecord
  2
Continuous
 70
     0
  3
Solid line
 72
    65
 73
     0
 40
0.0
  0
LTYPE
  5
6E
330
5
100
AcDbSymbolTableRecord
100
AcDbLinetypeTableRecord
  2
HIDDEN
 70
     0
  3
Hidden __ __ __ __ __ __ __ __ __ __ __ __ __ __
 72
    65
 73
     2
 40
1.905
 49
1.27
 74
     0
 49
-0.635
 74
     0
  0
LTYPE
  5
6F
330
5
100
AcDbSymbolTableRecord
100
AcDbLinetypeTableRecord
  2
PHANTOM
 70
     0
  3
Phantom ______  __  __  ______  __  __  ______
 72
    65
 73
     6
 40
12.7
 49
6.35
 74
     0
 49
-1.27
 74
     0
 49
1.27
 74
     0
 49
-1.27
 74
     0
 49
1.27
 74
     0
 49
-1.27
 74
     0
  0
LTYPE
  5
70
330
5
100
AcDbSymbolTableRecord
100
AcDbLinetypeTableRecord
  2
CENTER
 70
     0
  3
Center ____ _ ____ _ ____ _ ____ _ ____ _ ____
 72
    65
 73
     4
 40
10.16
 49
6.35
 74
     0
 49
-1.27
 74
     0
 49
1.27
 74
     0
 49
-1.27
 74
     0
  0
LTYPE
  5
71
330
5
100
AcDbSymbolTableRecord
100
AcDbLinetypeTableRecord
  2
CENTERX2
 70
     0
  3
Center (2x) ________  __  ________  __  _____
 72
    65
 73
     4
 40
20.32
 49
12.7
 74
     0
 49
-2.54
 74
     0
 49
2.54
 74
     0
 49
-2.54
 74
     0
  0
LTYPE
  5
72
330
5
100
AcDbSymbolTableRecord
100
AcDbLinetypeTableRecord
  2
DOT2
 70
     0
  3
Dot (.5x) ........................................
 72
    65
 73
     2
 40
0.635
 49
0.0
 74
     0
 49
-0.635
 74
     0
  0
ENDTAB
  0
TABLE
  2
LAYER
  5
2
330
0
100
AcDbSymbolTable
 70
    17
  0
LAYER
  5
10
330
2
100
AcDbSymbolTableRecord
100
AcDbLayerTableRecord
  2
0
 70
     0
 62
     7
  6
Continuous
370
    -3
390
F
  0
LAYER
  5
73
330
2
100
AcDbSymbolTableRecord
100
AcDbLayerTableRecord
  2
FORMAT
 70
     0
 62
     7
  6
Continuous
370
    -3
390
F
  0
LAYER
  5
74
330
2
100
AcDbSymbolTableRecord
100
AcDbLayerTableRecord
  2
YARDIMCI_GEOMETRI
 70
     0
 62
    -6
  6
Continuous
290
     0
370
    -3
390
F
  0
LAYER
  5
75
330
2
100
AcDbSymbolTableRecord
100
AcDbLayerTableRecord
  2
SAYFA_CERCEVESI
 70
     0
 62
     7
  6
Continuous
370
    25
390
F
  0
LAYER
  5
76
330
2
100
AcDbSymbolTableRecord
100
AcDbLayerTableRecord
  2
ANTET
 70
     0
 62
     7
  6
Continuous
370
    -3
390
F
  0
LAYER
  5
77
330
2
100
AcDbSymbolTableRecord
100
AcDbLayerTableRecord
  2
OLCU
 70
     0
 62
   150
  6
Continuous
370
    -3
390
F
  0
LAYER
  5
78
330
2
100
AcDbSymbolTableRecord
100
AcDbLayerTableRecord
  2
METIN
 70
     0
 62
    96
  6
Continuous
370
    -3
390
F
  0
LAYER
  5
79
330
2
100
AcDbSymbolTableRecord
100
AcDbLayerTableRecord
  2
BALON
 70
     0
 62
     5
  6
Continuous
370
    -3
390
F
  0
LAYER
  5
7A
330
2
100
AcDbSymbolTableRecord
100
AcDbLayerTableRecord
  2
VURGU
 70
     0
 62
     7
  6
Continuous
370
    -3
390
F
  0
LAYER
  5
7B
330
2
100
AcDbSymbolTableRecord
100
AcDbLayerTableRecord
  2
SILIK
 70
     0
 62
     7
  6
Continuous
370
    -3
390
F
  0
LAYER
  5
7C
330
2
100
AcDbSymbolTableRecord
100
AcDbLayerTableRecord
  2
MODEL
 70
     0
 62
     7
  6
Continuous
370
    -3
390
F
  0
LAYER
  5
7D
330
2
100
AcDbSymbolTableRecord
100
AcDbLayerTableRecord
  2
DETAYLANDıRMA
 70
     0
 62
   190
  6
Continuous
370
    -3
390
F
  0
LAYER
  5
7E
330
2
100
AcDbSymbolTableRecord
100
AcDbLayerTableRecord
  2
TOLERANS
 70
     0
 62
   230
  6
Continuous
370
    -3
390
F
  0
LAYER
  5
7F
330
2
100
AcDbSymbolTableRecord
100
AcDbLayerTableRecord
  2
MERKEZ_CIZGILERI
 70
     0
 62
    30
  6
Continuous
370
    -3
390
F
  0
LAYER
  5
80
330
2
100
AcDbSymbolTableRecord
100
AcDbLayerTableRecord
  2
KESIT-DETAY_CIZGILERI
 70
     0
 62
     7
  6
Continuous
370
    -3
390
F
  0
LAYER
  5
81
330
2
100
AcDbSymbolTableRecord
100
AcDbLayerTableRecord
  2
\U+041E\U+0421\U+0415\U+0412\U+042B\U+0415
 70
     0
 62
     7
  6
Continuous
370
    -3
390
F
  0
LAYER
  5
82
330
2
100
AcDbSymbolTableRecord
100
AcDbLayerTableRecord
  2
\U+0412\U+041E\U+0414\U+042F\U+041D\U+042B\U+0415_\U+0417\U+041D\U+0410\U+041A\U+0418
 70
     0
 62
    11
  6
Continuous
370
    -3
390
F
  0
ENDTAB
  0
TABLE
  2
STYLE
  5
3
330
0
100
AcDbSymbolTable
 70
     1
  0
STYLE
  5
11
330
3
100
AcDbSymbolTableRecord
100
AcDbTextStyleTableRecord
  2
Standard
 70
     0
 40
0.0
 41
1.0
 50
0.0
 71
     0
 42
3.5
  3
txt
  4

  0
ENDTAB
  0
TABLE
  2
VIEW
  5
6
330
0
100
AcDbSymbolTable
 70
     0
  0
ENDTAB
  0
TABLE
  2
UCS
  5
7
330
0
100
AcDbSymbolTable
 70
     0
  0
ENDTAB
  0
TABLE
  2
APPID
  5
9
330
0
100
AcDbSymbolTable
 70
     1
  0
APPID
  5
12
330
9
100
AcDbSymbolTableRecord
100
AcDbRegAppTableRecord
  2
ACAD
 70
     0
  0
ENDTAB
  0
TABLE
  2
DIMSTYLE
  5
A
330
0
100
AcDbSymbolTable
 70
     1
100
AcDbDimStyleTable
  0
DIMSTYLE
105
27
330
A
100
AcDbSymbolTableRecord
100
AcDbDimStyleTableRecord
  2
ISO-25
 70
     0
 41
2.5
 42
0.625
 43
3.75
 44
1.25
 73
     0
 74
     0
 77
     1
 78
     8
140
2.5
141
2.5
143
0.0393700787
147
0.625
171
     3
172
     1
178
     0
271
     2
272
     2
274
     3
278
    44
283
     0
284
     8
340
11
  0
ENDTAB
  0
TABLE
  2
BLOCK_RECORD
  5
1
330
0
100
AcDbSymbolTable
 70
    18
  0
BLOCK_RECORD
  5
1F
330
1
100
AcDbSymbolTableRecord
100
AcDbBlockTableRecord
  2
*Model_Space
340
22
  0
BLOCK_RECORD
  5
1B
330
1
100
AcDbSymbolTableRecord
100
AcDbBlockTableRecord
  2
*Paper_Space
340
1E
  0
BLOCK_RECORD
  5
23
330
1
100
AcDbSymbolTableRecord
100
AcDbBlockTableRecord
  2
*Paper_Space0
340
26
  0
BLOCK_RECORD
  5
A7
330
1
100
AcDbSymbolTableRecord
100
AcDbBlockTableRecord
  2
SW_CENTERMARKSYMBOL_0
340
0
102
{BLKREFS
331
B2
102
}
  0
BLOCK_RECORD
  5
B3
330
1
100
AcDbSymbolTableRecord
100
AcDbBlockTableRecord
  2
SW_CENTERMARKSYMBOL_1
340
0
102
{BLKREFS
331
BE
102
}
  0
BLOCK_RECORD
  5
BF
330
1
100
AcDbSymbolTableRecord
100
AcDbBlockTableRecord
  2
SW_CENTERMARKSYMBOL_2
340
0
102
{BLKREFS
331
CA
102
}
  0
BLOCK_RECORD
  5
CB
330
1
100
AcDbSymbolTableRecord
100
AcDbBlockTableRecord
  2
SW_CENTERMARKSYMBOL_3
340
0
102
{BLKREFS
331
D6
102
}
  0
BLOCK_RECORD
  5
D7
330
1
100
AcDbSymbolTableRecord
100
AcDbBlockTableRecord
  2
SW_CENTERMARKSYMBOL_4
340
0
102
{BLKREFS
331
E2
102
}
  0
BLOCK_RECORD
  5
E3
330
1
100
AcDbSymbolTableRecord
100
AcDbBlockTableRecord
  2
SW_CENTERMARKSYMBOL_5
340
0
102
{BLKREFS
331
EE
102
}
  0
BLOCK_RECORD
  5
EF
330
1
100
AcDbSymbolTableRecord
100
AcDbBlockTableRecord
  2
SW_CENTERMARKSYMBOL_6
340
0
102
{BLKREFS
331
FA
102
}
  0
BLOCK_RECORD
  5
FB
330
1
100
AcDbSymbolTableRecord
100
AcDbBlockTableRecord
  2
SW_CENTERMARKSYMBOL_7
340
0
102
{BLKREFS
331
106
102
}
  0
BLOCK_RECORD
  5
107
330
1
100
AcDbSymbolTableRecord
100
AcDbBlockTableRecord
  2
SW_CENTERMARKSYMBOL_8
340
0
102
{BLKREFS
331
112
102
}
  0
BLOCK_RECORD
  5
113
330
1
100
AcDbSymbolTableRecord
100
AcDbBlockTableRecord
  2
SW_CENTERMARKSYMBOL_9
340
0
102
{BLKREFS
331
11E
102
}
  0
BLOCK_RECORD
  5
11F
330
1
100
AcDbSymbolTableRecord
100
AcDbBlockTableRecord
  2
SW_CENTERMARKSYMBOL_10
340
0
102
{BLKREFS
331
12A
102
}
  0
BLOCK_RECORD
  5
12B
330
1
100
AcDbSymbolTableRecord
100
AcDbBlockTableRecord
  2
SW_CENTERMARKSYMBOL_11
340
0
102
{BLKREFS
331
136
102
}
  0
BLOCK_RECORD
  5
137
330
1
100
AcDbSymbolTableRecord
100
AcDbBlockTableRecord
  2
SW_CENTERMARKSYMBOL_12
340
0
102
{BLKREFS
331
142
102
}
  0
BLOCK_RECORD
  5
143
330
1
100
AcDbSymbolTableRecord
100
AcDbBlockTableRecord
  2
SW_CENTERMARKSYMBOL_13
340
0
102
{BLKREFS
331
14E
102
}
  0
BLOCK_RECORD
  5
14F
330
1
100
AcDbSymbolTableRecord
100
AcDbBlockTableRecord
  2
SW_CENTERMARKSYMBOL_14
340
0
102
{BLKREFS
331
15A
102
}
  0
BLOCK_RECORD
  5
15B
330
1
100
AcDbSymbolTableRecord
100
AcDbBlockTableRecord
  2
SW_CENTERMARKSYMBOL_15
340
0
102
{BLKREFS
331
166
102
}
  0
BLOCK_RECORD
  5
167
330
1
100
AcDbSymbolTableRecord
100
AcDbBlockTableRecord
  2
SW_CENTERMARKSYMBOL_16
340
0
102
{BLKREFS
331
172
102
}
  0
ENDTAB
  0
ENDSEC
  0
SECTION
  2
BLOCKS
  0
BLOCK
  5
20
330
1F
100
AcDbEntity
  8
0
100
AcDbBlockBegin
  2
*Model_Space
 70
     0
 10
0.0
 20
0.0
 30
0.0
  3
*Model_Space
  1

  0
ENDBLK
  5
21
330
1F
100
AcDbEntity
  8
0
100
AcDbBlockEnd
  0
BLOCK
  5
1C
330
1B
100
AcDbEntity
 67
     1
  8
0
100
AcDbBlockBegin
  2
*Paper_Space
 70
     0
 10
0.0
 20
0.0
 30
0.0
  3
*Paper_Space
  1

  0
ENDBLK
  5
1D
330
1B
100
AcDbEntity
 67
     1
  8
0
100
AcDbBlockEnd
  0
BLOCK
  5
24
330
23
100
AcDbEntity
  8
0
100
AcDbBlockBegin
  2
*Paper_Space0
 70
     0
 10
0.0
 20
0.0
 30
0.0
  3
*Paper_Space0
  1

  0
ENDBLK
  5
25
330
23
100
AcDbEntity
  8
0
100
AcDbBlockEnd
  0
BLOCK
  5
A8
330
A7
100
AcDbEntity
  8
0
100
AcDbBlockBegin
  2
SW_CENTERMARKSYMBOL_0
 70
     0
 10
0.0
 20
0.0
 30
0.0
  3
SW_CENTERMARKSYMBOL_0
  1

  0
LINE
  5
AA
330
A7
100
AcDbEntity
  8
FORMAT
 62
     0
100
AcDbLine
 10
0.0
 20
0.0
 30
0.0
 11
0.0
 21
2.5
 31
0.0
  0
LINE
  5
AB
330
A7
100
AcDbEntity
  8
FORMAT
 62
     0
100
AcDbLine
 10
0.0
 20
0.0
 30
0.0
 11
-2.5
 21
0.0
 31
0.0
  0
LINE
  5
AC
330
A7
100
AcDbEntity
  8
FORMAT
 62
     0
100
AcDbLine
 10
0.0
 20
0.0
 30
0.0
 11
0.0
 21
-2.5
 31
0.0
  0
LINE
  5
AD
330
A7
100
AcDbEntity
  8
FORMAT
 62
     0
100
AcDbLine
 10
0.0
 20
0.0
 30
0.0
 11
2.5
 21
0.0
 31
0.0
  0
LINE
  5
AE
330
A7
100
AcDbEntity
  8
FORMAT
 62
     0
100
AcDbLine
 10
0.0
 20
5.0
 30
0.0
 11
0.0
 21
298.5
 31
0.0
  0
LINE
  5
AF
330
A7
100
AcDbEntity
  8
FORMAT
 62
     0
100
AcDbLine
 10
-5.0
 20
0.0
 30
0.0
 11
-298.5
 21
0.0
 31
0.0
  0
LINE
  5
B0
330
A7
100
AcDbEntity
  8
FORMAT
 62
     0
100
AcDbLine
 10
0.0
 20
-5.0
 30
0.0
 11
0.0
 21
-298.5
 31
0.0
  0
LINE
  5
B1
330
A7
100
AcDbEntity
  8
FORMAT
 62
     0
100
AcDbLine
 10
5.0
 20
0.0
 30
0.0
 11
298.5
 21
0.0
 31
0.0
  0
ENDBLK
  5
A9
330
A7
100
AcDbEntity
  8
0
100
AcDbBlockEnd
  0
BLOCK
  5
B4
330
B3
100
AcDbEntity
  8
0
100
AcDbBlockBegin
  2
SW_CENTERMARKSYMBOL_1
 70
     0
 10
0.0
 20
0.0
 30
0.0
  3
SW_CENTERMARKSYMBOL_1
  1

  0
LINE
  5
B6
330
B3
100
AcDbEntity
  8
FORMAT
 62
     0
100
AcDbLine
 10
0.0
 20
0.0
 30
0.0
 11
0.0
 21
2.5
 31
0.0
  0
LINE
  5
B7
330
B3
100
AcDbEntity
  8
FORMAT
 62
     0
100
AcDbLine
 10
0.0
 20
0.0
 30
0.0
 11
-2.5
 21
0.0
 31
0.0
  0
LINE
  5
B8
330
B3
100
AcDbEntity
  8
FORMAT
 62
     0
100
AcDbLine
 10
0.0
 20
0.0
 30
0.0
 11
0.0
 21
-2.5
 31
0.0
  0
LINE
  5
B9
330
B3
100
AcDbEntity
  8
FORMAT
 62
     0
100
AcDbLine
 10
0.0
 20
0.0
 30
0.0
 11
2.5
 21
0.0
 31
0.0
  0
LINE
  5
BA
330
B3
100
AcDbEntity
  8
FORMAT
 62
     0
100
AcDbLine
 10
0.0
 20
5.0
 30
0.0
 11
0.0
 21
17.5
 31
0.0
  0
LINE
  5
BB
330
B3
100
AcDbEntity
  8
FORMAT
 62
     0
100
AcDbLine
 10
-5.0
 20
0.0
 30
0.0
 11
-17.5
 21
0.0
 31
0.0
  0
LINE
  5
BC
330
B3
100
AcDbEntity
  8
FORMAT
 62
     0
100
AcDbLine
 10
0.0
 20
-5.0
 30
0.0
 11
0.0
 21
-17.5
 31
0.0
  0
LINE
  5
BD
330
B3
100
AcDbEntity
  8
FORMAT
 62
     0
100
AcDbLine
 10
5.0
 20
0.0
 30
0.0
 11
17.5
 21
0.0
 31
0.0
  0
ENDBLK
  5
B5
330
B3
100
AcDbEntity
  8
0
100
AcDbBlockEnd
  0
BLOCK
  5
C0
330
BF
100
AcDbEntity
  8
0
100
AcDbBlockBegin
  2
SW_CENTERMARKSYMBOL_2
 70
     0
 10
0.0
 20
0.0
 30
0.0
  3
SW_CENTERMARKSYMBOL_2
  1

  0
LINE
  5
C2
330
BF
100
AcDbEntity
  8
FORMAT
 62
     0
100
AcDbLine
 10
0.0
 20
0.0
 30
0.0
 11
0.0
 21
2.5
 31
0.0
  0
LINE
  5
C3
330
BF
100
AcDbEntity
  8
FORMAT
 62
     0
100
AcDbLine
 10
0.0
 20
0.0
 30
0.0
 11
-2.5
 21
0.0
 31
0.0
  0
LINE
  5
C4
330
BF
100
AcDbEntity
  8
FORMAT
 62
     0
100
AcDbLine
 10
0.0
 20
0.0
 30
0.0
 11
0.0
 21
-2.5
 31
0.0
  0
LINE
  5
C5
330
BF
100
AcDbEntity
  8
FORMAT
 62
     0
100
AcDbLine
 10
0.0
 20
0.0
 30
0.0
 11
2.5
 21
0.0
 31
0.0
  0
LINE
  5
C6
330
BF
100
AcDbEntity
  8
FORMAT
 62
     0
100
AcDbLine
 10
0.0
 20
5.0
 30
0.0
 11
0.0
 21
17.5
 31
0.0
  0
LINE
  5
C7
330
BF
100
AcDbEntity
  8
FORMAT
 62
     0
100
AcDbLine
 10
-5.0
 20
0.0
 30
0.0
 11
-17.5
 21
0.0
 31
0.0
  0
LINE
  5
C8
330
BF
100
AcDbEntity
  8
FORMAT
 62
     0
100
AcDbLine
 10
0.0
 20
-5.0
 30
0.0
 11
0.0
 21
-17.5
 31
0.0
  0
LINE
  5
C9
330
BF
100
AcDbEntity
  8
FORMAT
 62
     0
100
AcDbLine
 10
5.0
 20
0.0
 30
0.0
 11
17.5
 21
0.0
 31
0.0
  0
ENDBLK
  5
C1
330
BF
100
AcDbEntity
  8
0
100
AcDbBlockEnd
  0
BLOCK
  5
CC
330
CB
100
AcDbEntity
  8
0
100
AcDbBlockBegin
  2
SW_CENTERMARKSYMBOL_3
 70
     0
 10
0.0
 20
0.0
 30
0.0
  3
SW_CENTERMARKSYMBOL_3
  1

  0
LINE
  5
CE
330
CB
100
AcDbEntity
  8
FORMAT
 62
     0
100
AcDbLine
 10
0.0
 20
0.0
 30
0.0
 11
0.0
 21
2.5
 31
0.0
  0
LINE
  5
CF
330
CB
100
AcDbEntity
  8
FORMAT
 62
     0
100
AcDbLine
 10
0.0
 20
0.0
 30
0.0
 11
-2.5
 21
0.0
 31
0.0
  0
LINE
  5
D0
330
CB
100
AcDbEntity
  8
FORMAT
 62
     0
100
AcDbLine
 10
0.0
 20
0.0
 30
0.0
 11
0.0
 21
-2.5
 31
0.0
  0
LINE
  5
D1
330
CB
100
AcDbEntity
  8
FORMAT
 62
     0
100
AcDbLine
 10
0.0
 20
0.0
 30
0.0
 11
2.5
 21
0.0
 31
0.0
  0
LINE
  5
D2
330
CB
100
AcDbEntity
  8
FORMAT
 62
     0
100
AcDbLine
 10
0.0
 20
5.0
 30
0.0
 11
0.0
 21
17.5
 31
0.0
  0
LINE
  5
D3
330
CB
100
AcDbEntity
  8
FORMAT
 62
     0
100
AcDbLine
 10
-5.0
 20
0.0
 30
0.0
 11
-17.5
 21
0.0
 31
0.0
  0
LINE
  5
D4
330
CB
100
AcDbEntity
  8
FORMAT
 62
     0
100
AcDbLine
 10
0.0
 20
-5.0
 30
0.0
 11
0.0
 21
-17.5
 31
0.0
  0
LINE
  5
D5
330
CB
100
AcDbEntity
  8
FORMAT
 62
     0
100
AcDbLine
 10
5.0
 20
0.0
 30
0.0
 11
17.5
 21
0.0
 31
0.0
  0
ENDBLK
  5
CD
330
CB
100
AcDbEntity
  8
0
100
AcDbBlockEnd
  0
BLOCK
  5
D8
330
D7
100
AcDbEntity
  8
0
100
AcDbBlockBegin
  2
SW_CENTERMARKSYMBOL_4
 70
     0
 10
0.0
 20
0.0
 30
0.0
  3
SW_CENTERMARKSYMBOL_4
  1

  0
LINE
  5
DA
330
D7
100
AcDbEntity
  8
FORMAT
 62
     0
100
AcDbLine
 10
0.0
 20
0.0
 30
0.0
 11
0.0
 21
2.5
 31
0.0
  0
LINE
  5
DB
330
D7
100
AcDbEntity
  8
FORMAT
 62
     0
100
AcDbLine
 10
0.0
 20
0.0
 30
0.0
 11
-2.5
 21
0.0
 31
0.0
  0
LINE
  5
DC
330
D7
100
AcDbEntity
  8
FORMAT
 62
     0
100
AcDbLine
 10
0.0
 20
0.0
 30
0.0
 11
0.0
 21
-2.5
 31
0.0
  0
LINE
  5
DD
330
D7
100
AcDbEntity
  8
FORMAT
 62
     0
100
AcDbLine
 10
0.0
 20
0.0
 30
0.0
 11
2.5
 21
0.0
 31
0.0
  0
LINE
  5
DE
330
D7
100
AcDbEntity
  8
FORMAT
 62
     0
100
AcDbLine
 10
0.0
 20
5.0
 30
0.0
 11
0.0
 21
17.5
 31
0.0
  0
LINE
  5
DF
330
D7
100
AcDbEntity
  8
FORMAT
 62
     0
100
AcDbLine
 10
-5.0
 20
0.0
 30
0.0
 11
-17.5
 21
0.0
 31
0.0
  0
LINE
  5
E0
330
D7
100
AcDbEntity
  8
FORMAT
 62
     0
100
AcDbLine
 10
0.0
 20
-5.0
 30
0.0
 11
0.0
 21
-17.5
 31
0.0
  0
LINE
  5
E1
330
D7
100
AcDbEntity
  8
FORMAT
 62
     0
100
AcDbLine
 10
5.0
 20
0.0
 30
0.0
 11
17.5
 21
0.0
 31
0.0
  0
ENDBLK
  5
D9
330
D7
100
AcDbEntity
  8
0
100
AcDbBlockEnd
  0
BLOCK
  5
E4
330
E3
100
AcDbEntity
  8
0
100
AcDbBlockBegin
  2
SW_CENTERMARKSYMBOL_5
 70
     0
 10
0.0
 20
0.0
 30
0.0
  3
SW_CENTERMARKSYMBOL_5
  1

  0
LINE
  5
E6
330
E3
100
AcDbEntity
  8
FORMAT
 62
     0
100
AcDbLine
 10
0.0
 20
0.0
 30
0.0
 11
0.0
 21
2.5
 31
0.0
  0
LINE
  5
E7
330
E3
100
AcDbEntity
  8
FORMAT
 62
     0
100
AcDbLine
 10
0.0
 20
0.0
 30
0.0
 11
-2.5
 21
0.0
 31
0.0
  0
LINE
  5
E8
330
E3
100
AcDbEntity
  8
FORMAT
 62
     0
100
AcDbLine
 10
0.0
 20
0.0
 30
0.0
 11
0.0
 21
-2.5
 31
0.0
  0
LINE
  5
E9
330
E3
100
AcDbEntity
  8
FORMAT
 62
     0
100
AcDbLine
 10
0.0
 20
0.0
 30
0.0
 11
2.5
 21
0.0
 31
0.0
  0
LINE
  5
EA
330
E3
100
AcDbEntity
  8
FORMAT
 62
     0
100
AcDbLine
 10
0.0
 20
5.0
 30
0.0
 11
0.0
 21
18.5
 31
0.0
  0
LINE
  5
EB
330
E3
100
AcDbEntity
  8
FORMAT
 62
     0
100
AcDbLine
 10
-5.0
 20
0.0
 30
0.0
 11
-18.5
 21
0.0
 31
0.0
  0
LINE
  5
EC
330
E3
100
AcDbEntity
  8
FORMAT
 62
     0
100
AcDbLine
 10
0.0
 20
-5.0
 30
0.0
 11
0.0
 21
-18.5
 31
0.0
  0
LINE
  5
ED
330
E3
100
AcDbEntity
  8
FORMAT
 62
     0
100
AcDbLine
 10
5.0
 20
0.0
 30
0.0
 11
18.5
 21
0.0
 31
0.0
  0
ENDBLK
  5
E5
330
E3
100
AcDbEntity
  8
0
100
AcDbBlockEnd
  0
BLOCK
  5
F0
330
EF
100
AcDbEntity
  8
0
100
AcDbBlockBegin
  2
SW_CENTERMARKSYMBOL_6
 70
     0
 10
0.0
 20
0.0
 30
0.0
  3
SW_CENTERMARKSYMBOL_6
  1

  0
LINE
  5
F2
330
EF
100
AcDbEntity
  8
FORMAT
 62
     0
100
AcDbLine
 10
0.0
 20
0.0
 30
0.0
 11
0.0
 21
2.5
 31
0.0
  0
LINE
  5
F3
330
EF
100
AcDbEntity
  8
FORMAT
 62
     0
100
AcDbLine
 10
0.0
 20
0.0
 30
0.0
 11
-2.5
 21
0.0
 31
0.0
  0
LINE
  5
F4
330
EF
100
AcDbEntity
  8
FORMAT
 62
     0
100
AcDbLine
 10
0.0
 20
0.0
 30
0.0
 11
0.0
 21
-2.5
 31
0.0
  0
LINE
  5
F5
330
EF
100
AcDbEntity
  8
FORMAT
 62
     0
100
AcDbLine
 10
0.0
 20
0.0
 30
0.0
 11
2.5
 21
0.0
 31
0.0
  0
LINE
  5
F6
330
EF
100
AcDbEntity
  8
FORMAT
 62
     0
100
AcDbLine
 10
0.0
 20
5.0
 30
0.0
 11
0.0
 21
18.5
 31
0.0
  0
LINE
  5
F7
330
EF
100
AcDbEntity
  8
FORMAT
 62
     0
100
AcDbLine
 10
-5.0
 20
0.0
 30
0.0
 11
-18.5
 21
0.0
 31
0.0
  0
LINE
  5
F8
330
EF
100
AcDbEntity
  8
FORMAT
 62
     0
100
AcDbLine
 10
0.0
 20
-5.0
 30
0.0
 11
0.0
 21
-18.5
 31
0.0
  0
LINE
  5
F9
330
EF
100
AcDbEntity
  8
FORMAT
 62
     0
100
AcDbLine
 10
5.0
 20
0.0
 30
0.0
 11
18.5
 21
0.0
 31
0.0
  0
ENDBLK
  5
F1
330
EF
100
AcDbEntity
  8
0
100
AcDbBlockEnd
  0
BLOCK
  5
FC
330
FB
100
AcDbEntity
  8
0
100
AcDbBlockBegin
  2
SW_CENTERMARKSYMBOL_7
 70
     0
 10
0.0
 20
0.0
 30
0.0
  3
SW_CENTERMARKSYMBOL_7
  1

  0
LINE
  5
FE
330
FB
100
AcDbEntity
  8
FORMAT
 62
     0
100
AcDbLine
 10
0.0
 20
0.0
 30
0.0
 11
0.0
 21
2.5
 31
0.0
  0
LINE
  5
FF
330
FB
100
AcDbEntity
  8
FORMAT
 62
     0
100
AcDbLine
 10
0.0
 20
0.0
 30
0.0
 11
-2.5
 21
0.0
 31
0.0
  0
LINE
  5
100
330
FB
100
AcDbEntity
  8
FORMAT
 62
     0
100
AcDbLine
 10
0.0
 20
0.0
 30
0.0
 11
0.0
 21
-2.5
 31
0.0
  0
LINE
  5
101
330
FB
100
AcDbEntity
  8
FORMAT
 62
     0
100
AcDbLine
 10
0.0
 20
0.0
 30
0.0
 11
2.5
 21
0.0
 31
0.0
  0
LINE
  5
102
330
FB
100
AcDbEntity
  8
FORMAT
 62
     0
100
AcDbLine
 10
0.0
 20
5.0
 30
0.0
 11
0.0
 21
18.5
 31
0.0
  0
LINE
  5
103
330
FB
100
AcDbEntity
  8
FORMAT
 62
     0
100
AcDbLine
 10
-5.0
 20
0.0
 30
0.0
 11
-18.5
 21
0.0
 31
0.0
  0
LINE
  5
104
330
FB
100
AcDbEntity
  8
FORMAT
 62
     0
100
AcDbLine
 10
0.0
 20
-5.0
 30
0.0
 11
0.0
 21
-18.5
 31
0.0
  0
LINE
  5
105
330
FB
100
AcDbEntity
  8
FORMAT
 62
     0
100
AcDbLine
 10
5.0
 20
0.0
 30
0.0
 11
18.5
 21
0.0
 31
0.0
  0
ENDBLK
  5
FD
330
FB
100
AcDbEntity
  8
0
100
AcDbBlockEnd
  0
BLOCK
  5
108
330
107
100
AcDbEntity
  8
0
100
AcDbBlockBegin
  2
SW_CENTERMARKSYMBOL_8
 70
     0
 10
0.0
 20
0.0
 30
0.0
  3
SW_CENTERMARKSYMBOL_8
  1

  0
LINE
  5
10A
330
107
100
AcDbEntity
  8
FORMAT
 62
     0
100
AcDbLine
 10
0.0
 20
0.0
 30
0.0
 11
0.0
 21
2.5
 31
0.0
  0
LINE
  5
10B
330
107
100
AcDbEntity
  8
FORMAT
 62
     0
100
AcDbLine
 10
0.0
 20
0.0
 30
0.0
 11
-2.5
 21
0.0
 31
0.0
  0
LINE
  5
10C
330
107
100
AcDbEntity
  8
FORMAT
 62
     0
100
AcDbLine
 10
0.0
 20
0.0
 30
0.0
 11
0.0
 21
-2.5
 31
0.0
  0
LINE
  5
10D
330
107
100
AcDbEntity
  8
FORMAT
 62
     0
100
AcDbLine
 10
0.0
 20
0.0
 30
0.0
 11
2.5
 21
0.0
 31
0.0
  0
LINE
  5
10E
330
107
100
AcDbEntity
  8
FORMAT
 62
     0
100
AcDbLine
 10
0.0
 20
5.0
 30
0.0
 11
0.0
 21
18.5
 31
0.0
  0
LINE
  5
10F
330
107
100
AcDbEntity
  8
FORMAT
 62
     0
100
AcDbLine
 10
-5.0
 20
0.0
 30
0.0
 11
-18.5
 21
0.0
 31
0.0
  0
LINE
  5
110
330
107
100
AcDbEntity
  8
FORMAT
 62
     0
100
AcDbLine
 10
0.0
 20
-5.0
 30
0.0
 11
0.0
 21
-18.5
 31
0.0
  0
LINE
  5
111
330
107
100
AcDbEntity
  8
FORMAT
 62
     0
100
AcDbLine
 10
5.0
 20
0.0
 30
0.0
 11
18.5
 21
0.0
 31
0.0
  0
ENDBLK
  5
109
330
107
100
AcDbEntity
  8
0
100
AcDbBlockEnd
  0
BLOCK
  5
114
330
113
100
AcDbEntity
  8
0
100
AcDbBlockBegin
  2
SW_CENTERMARKSYMBOL_9
 70
     0
 10
0.0
 20
0.0
 30
0.0
  3
SW_CENTERMARKSYMBOL_9
  1

  0
LINE
  5
116
330
113
100
AcDbEntity
  8
FORMAT
 62
     0
100
AcDbLine
 10
0.0
 20
0.0
 30
0.0
 11
0.0
 21
2.5
 31
0.0
  0
LINE
  5
117
330
113
100
AcDbEntity
  8
FORMAT
 62
     0
100
AcDbLine
 10
0.0
 20
0.0
 30
0.0
 11
-2.5
 21
0.0
 31
0.0
  0
LINE
  5
118
330
113
100
AcDbEntity
  8
FORMAT
 62
     0
100
AcDbLine
 10
0.0
 20
0.0
 30
0.0
 11
0.0
 21
-2.5
 31
0.0
  0
LINE
  5
119
330
113
100
AcDbEntity
  8
FORMAT
 62
     0
100
AcDbLine
 10
0.0
 20
0.0
 30
0.0
 11
2.5
 21
0.0
 31
0.0
  0
LINE
  5
11A
330
113
100
AcDbEntity
  8
FORMAT
 62
     0
100
AcDbLine
 10
0.0
 20
5.0
 30
0.0
 11
0.0
 21
18.5
 31
0.0
  0
LINE
  5
11B
330
113
100
AcDbEntity
  8
FORMAT
 62
     0
100
AcDbLine
 10
-5.0
 20
0.0
 30
0.0
 11
-18.5
 21
0.0
 31
0.0
  0
LINE
  5
11C
330
113
100
AcDbEntity
  8
FORMAT
 62
     0
100
AcDbLine
 10
0.0
 20
-5.0
 30
0.0
 11
0.0
 21
-18.5
 31
0.0
  0
LINE
  5
11D
330
113
100
AcDbEntity
  8
FORMAT
 62
     0
100
AcDbLine
 10
5.0
 20
0.0
 30
0.0
 11
18.5
 21
0.0
 31
0.0
  0
ENDBLK
  5
115
330
113
100
AcDbEntity
  8
0
100
AcDbBlockEnd
  0
BLOCK
  5
120
330
11F
100
AcDbEntity
  8
0
100
AcDbBlockBegin
  2
SW_CENTERMARKSYMBOL_10
 70
     0
 10
0.0
 20
0.0
 30
0.0
  3
SW_CENTERMARKSYMBOL_10
  1

  0
LINE
  5
122
330
11F
100
AcDbEntity
  8
FORMAT
 62
     0
100
AcDbLine
 10
0.0
 20
0.0
 30
0.0
 11
0.0
 21
2.5
 31
0.0
  0
LINE
  5
123
330
11F
100
AcDbEntity
  8
FORMAT
 62
     0
100
AcDbLine
 10
0.0
 20
0.0
 30
0.0
 11
-2.5
 21
0.0
 31
0.0
  0
LINE
  5
124
330
11F
100
AcDbEntity
  8
FORMAT
 62
     0
100
AcDbLine
 10
0.0
 20
0.0
 30
0.0
 11
0.0
 21
-2.5
 31
0.0
  0
LINE
  5
125
330
11F
100
AcDbEntity
  8
FORMAT
 62
     0
100
AcDbLine
 10
0.0
 20
0.0
 30
0.0
 11
2.5
 21
0.0
 31
0.0
  0
LINE
  5
126
330
11F
100
AcDbEntity
  8
FORMAT
 62
     0
100
AcDbLine
 10
0.0
 20
5.0
 30
0.0
 11
0.0
 21
18.5
 31
0.0
  0
LINE
  5
127
330
11F
100
AcDbEntity
  8
FORMAT
 62
     0
100
AcDbLine
 10
-5.0
 20
0.0
 30
0.0
 11
-18.5
 21
0.0
 31
0.0
  0
LINE
  5
128
330
11F
100
AcDbEntity
  8
FORMAT
 62
     0
100
AcDbLine
 10
0.0
 20
-5.0
 30
0.0
 11
0.0
 21
-18.5
 31
0.0
  0
LINE
  5
129
330
11F
100
AcDbEntity
  8
FORMAT
 62
     0
100
AcDbLine
 10
5.0
 20
0.0
 30
0.0
 11
18.5
 21
0.0
 31
0.0
  0
ENDBLK
  5
121
330
11F
100
AcDbEntity
  8
0
100
AcDbBlockEnd
  0
BLOCK
  5
12C
330
12B
100
AcDbEntity
  8
0
100
AcDbBlockBegin
  2
SW_CENTERMARKSYMBOL_11
 70
     0
 10
0.0
 20
0.0
 30
0.0
  3
SW_CENTERMARKSYMBOL_11
  1

  0
LINE
  5
12E
330
12B
100
AcDbEntity
  8
FORMAT
 62
     0
100
AcDbLine
 10
0.0
 20
0.0
 30
0.0
 11
0.0
 21
2.5
 31
0.0
  0
LINE
  5
12F
330
12B
100
AcDbEntity
  8
FORMAT
 62
     0
100
AcDbLine
 10
0.0
 20
0.0
 30
0.0
 11
-2.5
 21
0.0
 31
0.0
  0
LINE
  5
130
330
12B
100
AcDbEntity
  8
FORMAT
 62
     0
100
AcDbLine
 10
0.0
 20
0.0
 30
0.0
 11
0.0
 21
-2.5
 31
0.0
  0
LINE
  5
131
330
12B
100
AcDbEntity
  8
FORMAT
 62
     0
100
AcDbLine
 10
0.0
 20
0.0
 30
0.0
 11
2.5
 21
0.0
 31
0.0
  0
LINE
  5
132
330
12B
100
AcDbEntity
  8
FORMAT
 62
     0
100
AcDbLine
 10
0.0
 20
5.0
 30
0.0
 11
0.0
 21
18.5
 31
0.0
  0
LINE
  5
133
330
12B
100
AcDbEntity
  8
FORMAT
 62
     0
100
AcDbLine
 10
-5.0
 20
0.0
 30
0.0
 11
-18.5
 21
0.0
 31
0.0
  0
LINE
  5
134
330
12B
100
AcDbEntity
  8
FORMAT
 62
     0
100
AcDbLine
 10
0.0
 20
-5.0
 30
0.0
 11
0.0
 21
-18.5
 31
0.0
  0
LINE
  5
135
330
12B
100
AcDbEntity
  8
FORMAT
 62
     0
100
AcDbLine
 10
5.0
 20
0.0
 30
0.0
 11
18.5
 21
0.0
 31
0.0
  0
ENDBLK
  5
12D
330
12B
100
AcDbEntity
  8
0
100
AcDbBlockEnd
  0
BLOCK
  5
138
330
137
100
AcDbEntity
  8
0
100
AcDbBlockBegin
  2
SW_CENTERMARKSYMBOL_12
 70
     0
 10
0.0
 20
0.0
 30
0.0
  3
SW_CENTERMARKSYMBOL_12
  1

  0
LINE
  5
13A
330
137
100
AcDbEntity
  8
FORMAT
 62
     0
100
AcDbLine
 10
0.0
 20
0.0
 30
0.0
 11
0.0
 21
2.5
 31
0.0
  0
LINE
  5
13B
330
137
100
AcDbEntity
  8
FORMAT
 62
     0
100
AcDbLine
 10
0.0
 20
0.0
 30
0.0
 11
-2.5
 21
0.0
 31
0.0
  0
LINE
  5
13C
330
137
100
AcDbEntity
  8
FORMAT
 62
     0
100
AcDbLine
 10
0.0
 20
0.0
 30
0.0
 11
0.0
 21
-2.5
 31
0.0
  0
LINE
  5
13D
330
137
100
AcDbEntity
  8
FORMAT
 62
     0
100
AcDbLine
 10
0.0
 20
0.0
 30
0.0
 11
2.5
 21
0.0
 31
0.0
  0
LINE
  5
13E
330
137
100
AcDbEntity
  8
FORMAT
 62
     0
100
AcDbLine
 10
0.0
 20
5.0
 30
0.0
 11
0.0
 21
18.5
 31
0.0
  0
LINE
  5
13F
330
137
100
AcDbEntity
  8
FORMAT
 62
     0
100
AcDbLine
 10
-5.0
 20
0.0
 30
0.0
 11
-18.5
 21
0.0
 31
0.0
  0
LINE
  5
140
330
137
100
AcDbEntity
  8
FORMAT
 62
     0
100
AcDbLine
 10
0.0
 20
-5.0
 30
0.0
 11
0.0
 21
-18.5
 31
0.0
  0
LINE
  5
141
330
137
100
AcDbEntity
  8
FORMAT
 62
     0
100
AcDbLine
 10
5.0
 20
0.0
 30
0.0
 11
18.5
 21
0.0
 31
0.0
  0
ENDBLK
  5
139
330
137
100
AcDbEntity
  8
0
100
AcDbBlockEnd
  0
BLOCK
  5
144
330
143
100
AcDbEntity
  8
0
100
AcDbBlockBegin
  2
SW_CENTERMARKSYMBOL_13
 70
     0
 10
0.0
 20
0.0
 30
0.0
  3
SW_CENTERMARKSYMBOL_13
  1

  0
LINE
  5
146
330
143
100
AcDbEntity
  8
FORMAT
 62
     0
100
AcDbLine
 10
0.0
 20
0.0
 30
0.0
 11
0.0
 21
2.5
 31
0.0
  0
LINE
  5
147
330
143
100
AcDbEntity
  8
FORMAT
 62
     0
100
AcDbLine
 10
0.0
 20
0.0
 30
0.0
 11
-2.5
 21
0.0
 31
0.0
  0
LINE
  5
148
330
143
100
AcDbEntity
  8
FORMAT
 62
     0
100
AcDbLine
 10
0.0
 20
0.0
 30
0.0
 11
0.0
 21
-2.5
 31
0.0
  0
LINE
  5
149
330
143
100
AcDbEntity
  8
FORMAT
 62
     0
100
AcDbLine
 10
0.0
 20
0.0
 30
0.0
 11
2.5
 21
0.0
 31
0.0
  0
LINE
  5
14A
330
143
100
AcDbEntity
  8
FORMAT
 62
     0
100
AcDbLine
 10
0.0
 20
5.0
 30
0.0
 11
0.0
 21
18.5
 31
0.0
  0
LINE
  5
14B
330
143
100
AcDbEntity
  8
FORMAT
 62
     0
100
AcDbLine
 10
-5.0
 20
0.0
 30
0.0
 11
-18.5
 21
0.0
 31
0.0
  0
LINE
  5
14C
330
143
100
AcDbEntity
  8
FORMAT
 62
     0
100
AcDbLine
 10
0.0
 20
-5.0
 30
0.0
 11
0.0
 21
-18.5
 31
0.0
  0
LINE
  5
14D
330
143
100
AcDbEntity
  8
FORMAT
 62
     0
100
AcDbLine
 10
5.0
 20
0.0
 30
0.0
 11
18.5
 21
0.0
 31
0.0
  0
ENDBLK
  5
145
330
143
100
AcDbEntity
  8
0
100
AcDbBlockEnd
  0
BLOCK
  5
150
330
14F
100
AcDbEntity
  8
0
100
AcDbBlockBegin
  2
SW_CENTERMARKSYMBOL_14
 70
     0
 10
0.0
 20
0.0
 30
0.0
  3
SW_CENTERMARKSYMBOL_14
  1

  0
LINE
  5
152
330
14F
100
AcDbEntity
  8
FORMAT
 62
     0
100
AcDbLine
 10
0.0
 20
0.0
 30
0.0
 11
0.0
 21
2.5
 31
0.0
  0
LINE
  5
153
330
14F
100
AcDbEntity
  8
FORMAT
 62
     0
100
AcDbLine
 10
0.0
 20
0.0
 30
0.0
 11
-2.5
 21
0.0
 31
0.0
  0
LINE
  5
154
330
14F
100
AcDbEntity
  8
FORMAT
 62
     0
100
AcDbLine
 10
0.0
 20
0.0
 30
0.0
 11
0.0
 21
-2.5
 31
0.0
  0
LINE
  5
155
330
14F
100
AcDbEntity
  8
FORMAT
 62
     0
100
AcDbLine
 10
0.0
 20
0.0
 30
0.0
 11
2.5
 21
0.0
 31
0.0
  0
LINE
  5
156
330
14F
100
AcDbEntity
  8
FORMAT
 62
     0
100
AcDbLine
 10
0.0
 20
5.0
 30
0.0
 11
0.0
 21
18.5
 31
0.0
  0
LINE
  5
157
330
14F
100
AcDbEntity
  8
FORMAT
 62
     0
100
AcDbLine
 10
-5.0
 20
0.0
 30
0.0
 11
-18.5
 21
0.0
 31
0.0
  0
LINE
  5
158
330
14F
100
AcDbEntity
  8
FORMAT
 62
     0
100
AcDbLine
 10
0.0
 20
-5.0
 30
0.0
 11
0.0
 21
-18.5
 31
0.0
  0
LINE
  5
159
330
14F
100
AcDbEntity
  8
FORMAT
 62
     0
100
AcDbLine
 10
5.0
 20
0.0
 30
0.0
 11
18.5
 21
0.0
 31
0.0
  0
ENDBLK
  5
151
330
14F
100
AcDbEntity
  8
0
100
AcDbBlockEnd
  0
BLOCK
  5
15C
330
15B
100
AcDbEntity
  8
0
100
AcDbBlockBegin
  2
SW_CENTERMARKSYMBOL_15
 70
     0
 10
0.0
 20
0.0
 30
0.0
  3
SW_CENTERMARKSYMBOL_15
  1

  0
LINE
  5
15E
330
15B
100
AcDbEntity
  8
FORMAT
 62
     0
100
AcDbLine
 10
0.0
 20
0.0
 30
0.0
 11
0.0
 21
2.5
 31
0.0
  0
LINE
  5
15F
330
15B
100
AcDbEntity
  8
FORMAT
 62
     0
100
AcDbLine
 10
0.0
 20
0.0
 30
0.0
 11
-2.5
 21
0.0
 31
0.0
  0
LINE
  5
160
330
15B
100
AcDbEntity
  8
FORMAT
 62
     0
100
AcDbLine
 10
0.0
 20
0.0
 30
0.0
 11
0.0
 21
-2.5
 31
0.0
  0
LINE
  5
161
330
15B
100
AcDbEntity
  8
FORMAT
 62
     0
100
AcDbLine
 10
0.0
 20
0.0
 30
0.0
 11
2.5
 21
0.0
 31
0.0
  0
LINE
  5
162
330
15B
100
AcDbEntity
  8
FORMAT
 62
     0
100
AcDbLine
 10
0.0
 20
5.0
 30
0.0
 11
0.0
 21
18.5
 31
0.0
  0
LINE
  5
163
330
15B
100
AcDbEntity
  8
FORMAT
 62
     0
100
AcDbLine
 10
-5.0
 20
0.0
 30
0.0
 11
-18.5
 21
0.0
 31
0.0
  0
LINE
  5
164
330
15B
100
AcDbEntity
  8
FORMAT
 62
     0
100
AcDbLine
 10
0.0
 20
-5.0
 30
0.0
 11
0.0
 21
-18.5
 31
0.0
  0
LINE
  5
165
330
15B
100
AcDbEntity
  8
FORMAT
 62
     0
100
AcDbLine
 10
5.0
 20
0.0
 30
0.0
 11
18.5
 21
0.0
 31
0.0
  0
ENDBLK
  5
15D
330
15B
100
AcDbEntity
  8
0
100
AcDbBlockEnd
  0
BLOCK
  5
168
330
167
100
AcDbEntity
  8
0
100
AcDbBlockBegin
  2
SW_CENTERMARKSYMBOL_16
 70
     0
 10
0.0
 20
0.0
 30
0.0
  3
SW_CENTERMARKSYMBOL_16
  1

  0
LINE
  5
16A
330
167
100
AcDbEntity
  8
FORMAT
 62
     0
100
AcDbLine
 10
0.0
 20
0.0
 30
0.0
 11
0.0
 21
2.5
 31
0.0
  0
LINE
  5
16B
330
167
100
AcDbEntity
  8
FORMAT
 62
     0
100
AcDbLine
 10
0.0
 20
0.0
 30
0.0
 11
-2.5
 21
0.0
 31
0.0
  0
LINE
  5
16C
330
167
100
AcDbEntity
  8
FORMAT
 62
     0
100
AcDbLine
 10
0.0
 20
0.0
 30
0.0
 11
0.0
 21
-2.5
 31
0.0
  0
LINE
  5
16D
330
167
100
AcDbEntity
  8
FORMAT
 62
     0
100
AcDbLine
 10
0.0
 20
0.0
 30
0.0
 11
2.5
 21
0.0
 31
0.0
  0
LINE
  5
16E
330
167
100
AcDbEntity
  8
FORMAT
 62
     0
100
AcDbLine
 10
0.0
 20
5.0
 30
0.0
 11
0.0
 21
18.5
 31
0.0
  0
LINE
  5
16F
330
167
100
AcDbEntity
  8
FORMAT
 62
     0
100
AcDbLine
 10
-5.0
 20
0.0
 30
0.0
 11
-18.5
 21
0.0
 31
0.0
  0
LINE
  5
170
330
167
100
AcDbEntity
  8
FORMAT
 62
     0
100
AcDbLine
 10
0.0
 20
-5.0
 30
0.0
 11
0.0
 21
-18.5
 31
0.0
  0
LINE
  5
171
330
167
100
AcDbEntity
  8
FORMAT
 62
     0
100
AcDbLine
 10
5.0
 20
0.0
 30
0.0
 11
18.5
 21
0.0
 31
0.0
  0
ENDBLK
  5
169
330
167
100
AcDbEntity
  8
0
100
AcDbBlockEnd
  0
ENDSEC
  0
SECTION
  2
ENTITIES
  0
CIRCLE
  5
83
330
1F
100
AcDbEntity
  8
0
  6
Continuous
 62
     7
370
    25
100
AcDbCircle
 10
-50.5049362411
 20
301.3065259347
 30
0.0
 40
15.99999999999999
  0
CIRCLE
  5
84
330
1F
100
AcDbEntity
  8
0
  6
Continuous
 62
     7
370
    25
100
AcDbCircle
 10
-127.3894061796
 20
115.6909958732
 30
0.0
 40
16.00000000000001
  0
CIRCLE
  5
85
330
1F
100
AcDbEntity
  8
0
  6
Continuous
 62
     7
370
    25
100
AcDbCircle
 10
-50.5049362411
 20
-69.9245341883
 30
0.0
 40
16.00000000000001
  0
CIRCLE
  5
86
330
1F
100
AcDbEntity
  8
0
  6
Continuous
 62
     7
370
    25
100
AcDbCircle
 10
135.1105938204
 20
-146.8090041268
 30
0.0
 40
16.0
  0
CIRCLE
  5
87
330
1F
100
AcDbEntity
  8
0
  6
Continuous
 62
     7
370
    25
100
AcDbCircle
 10
320.7261238819
 20
-69.9245341883
 30
0.0
 40
16.0
  0
CIRCLE
  5
88
330
1F
100
AcDbEntity
  8
0
  6
Continuous
 62
     7
370
    25
100
AcDbCircle
 10
377.6289711046
 20
216.145396869
 30
0.0
 40
16.0
  0
CIRCLE
  5
89
330
1F
100
AcDbEntity
  8
0
  6
Continuous
 62
     7
370
    25
100
AcDbCircle
 10
235.5649948163
 20
358.2093731574
 30
0.0
 40
16.0
  0
CIRCLE
  5
8A
330
1F
100
AcDbEntity
  8
0
  6
Continuous
 62
     7
370
    25
100
AcDbCircle
 10
135.1105938204
 20
378.1909958732
 30
0.0
 40
16.0
  0
CIRCLE
  5
8B
330
1F
100
AcDbEntity
  8
0
  6
Continuous
 62
     7
370
    25
100
AcDbCircle
 10
135.1105938204
 20
115.6909958732
 30
0.0
 40
295.0
  0
CIRCLE
  5
8C
330
1F
100
AcDbEntity
  8
0
  6
Continuous
 62
     7
370
    25
100
AcDbCircle
 10
135.1105938204
 20
115.6909958732
 30
0.0
 40
216.0
  0
CIRCLE
  5
8D
330
1F
100
AcDbEntity
  8
0
  6
Continuous
 62
     7
370
    25
100
AcDbCircle
 10
397.6105938204
 20
115.6909958732
 30
0.0
 40
16.0
  0
CIRCLE
  5
8E
330
1F
100
AcDbEntity
  8
0
  6
Continuous
 62
     7
370
    25
100
AcDbCircle
 10
320.7261238819
 20
301.3065259347
 30
0.0
 40
16.00000000000006
  0
CIRCLE
  5
8F
330
1F
100
AcDbEntity
  8
0
  6
Continuous
 62
     7
370
    25
100
AcDbCircle
 10
377.6289711046
 20
15.2365948773
 30
0.0
 40
15.99999999999994
  0
CIRCLE
  5
90
330
1F
100
AcDbEntity
  8
0
  6
Continuous
 62
     7
370
    25
100
AcDbCircle
 10
235.5649948162
 20
-126.827381411
 30
0.0
 40
16.0
  0
CIRCLE
  5
91
330
1F
100
AcDbEntity
  8
0
  6
Continuous
 62
     7
370
    25
100
AcDbCircle
 10
34.6561928245
 20
-126.827381411
 30
0.0
 40
16.0
  0
CIRCLE
  5
92
330
1F
100
AcDbEntity
  8
0
  6
Continuous
 62
     7
370
    25
100
AcDbCircle
 10
-107.4077834638
 20
15.2365948774
 30
0.0
 40
15.99999999999999
  0
CIRCLE
  5
93
330
1F
100
AcDbEntity
  8
0
  6
Continuous
 62
     7
370
    25
100
AcDbCircle
 10
-107.4077834638
 20
216.1453968691
 30
0.0
 40
16.00000000000001
  0
CIRCLE
  5
94
330
1F
100
AcDbEntity
  8
0
  6
Continuous
 62
     7
370
    25
100
AcDbCircle
 10
34.6561928246
 20
358.2093731574
 30
0.0
 40
16.0
  0
CIRCLE
  5
95
330
1F
100
AcDbEntity
  8
0
  6
Continuous
 62
     7
370
    25
100
AcDbCircle
 10
377.6289711046
 20
15.2365948773
 30
0.0
 40
14.99999999999994
  0
CIRCLE
  5
96
330
1F
100
AcDbEntity
  8
0
  6
Continuous
 62
     7
370
    25
100
AcDbCircle
 10
320.7261238819
 20
301.3065259347
 30
0.0
 40
15.00000000000006
  0
CIRCLE
  5
97
330
1F
100
AcDbEntity
  8
0
  6
Continuous
 62
     7
370
    25
100
AcDbCircle
 10
397.6105938204
 20
115.6909958732
 30
0.0
 40
15.0
  0
CIRCLE
  5
98
330
1F
100
AcDbEntity
  8
0
  6
Continuous
 62
     7
370
    25
100
AcDbCircle
 10
135.1105938204
 20
115.6909958732
 30
0.0
 40
215.0
  0
CIRCLE
  5
99
330
1F
100
AcDbEntity
  8
0
  6
Continuous
 62
     7
370
    25
100
AcDbCircle
 10
135.1105938204
 20
115.6909958732
 30
0.0
 40
296.0
  0
CIRCLE
  5
9A
330
1F
100
AcDbEntity
  8
0
  6
Continuous
 62
     7
370
    25
100
AcDbCircle
 10
135.1105938204
 20
378.1909958732
 30
0.0
 40
15.0
  0
CIRCLE
  5
9B
330
1F
100
AcDbEntity
  8
0
  6
Continuous
 62
     7
370
    25
100
AcDbCircle
 10
235.5649948163
 20
358.2093731574
 30
0.0
 40
15.0
  0
CIRCLE
  5
9C
330
1F
100
AcDbEntity
  8
0
  6
Continuous
 62
     7
370
    25
100
AcDbCircle
 10
377.6289711046
 20
216.145396869
 30
0.0
 40
15.0
  0
CIRCLE
  5
9D
330
1F
100
AcDbEntity
  8
0
  6
Continuous
 62
     7
370
    25
100
AcDbCircle
 10
320.7261238819
 20
-69.9245341883
 30
0.0
 40
15.0
  0
CIRCLE
  5
9E
330
1F
100
AcDbEntity
  8
0
  6
Continuous
 62
     7
370
    25
100
AcDbCircle
 10
34.6561928246
 20
358.2093731574
 30
0.0
 40
15.0
  0
CIRCLE
  5
9F
330
1F
100
AcDbEntity
  8
0
  6
Continuous
 62
     7
370
    25
100
AcDbCircle
 10
-107.4077834638
 20
216.1453968691
 30
0.0
 40
15.00000000000001
  0
CIRCLE
  5
A0
330
1F
100
AcDbEntity
  8
0
  6
Continuous
 62
     7
370
    25
100
AcDbCircle
 10
-107.4077834638
 20
15.2365948774
 30
0.0
 40
14.99999999999999
  0
CIRCLE
  5
A1
330
1F
100
AcDbEntity
  8
0
  6
Continuous
 62
     7
370
    25
100
AcDbCircle
 10
34.6561928245
 20
-126.827381411
 30
0.0
 40
15.0
  0
CIRCLE
  5
A2
330
1F
100
AcDbEntity
  8
0
  6
Continuous
 62
     7
370
    25
100
AcDbCircle
 10
235.5649948162
 20
-126.827381411
 30
0.0
 40
15.0
  0
CIRCLE
  5
A3
330
1F
100
AcDbEntity
  8
0
  6
Continuous
 62
     7
370
    25
100
AcDbCircle
 10
-50.5049362411
 20
-69.9245341883
 30
0.0
 40
15.00000000000004
  0
CIRCLE
  5
A4
330
1F
100
AcDbEntity
  8
0
  6
Continuous
 62
     7
370
    25
100
AcDbCircle
 10
-127.3894061796
 20
115.6909958732
 30
0.0
 40
15.00000000000001
  0
CIRCLE
  5
A5
330
1F
100
AcDbEntity
  8
0
  6
Continuous
 62
     7
370
    25
100
AcDbCircle
 10
135.1105938204
 20
-146.8090041268
 30
0.0
 40
15.00000000000003
  0
CIRCLE
  5
A6
330
1F
100
AcDbEntity
  8
0
  6
Continuous
 62
     7
370
    25
100
AcDbCircle
 10
-50.5049362411
 20
301.3065259347
 30
0.0
 40
14.99999999999999
  0
INSERT
  5
B2
330
1F
100
AcDbEntity
  8
FORMAT
 62
     7
100
AcDbBlockReference
  2
SW_CENTERMARKSYMBOL_0
 10
135.1105938204
 20
115.6909958732
 30
0.0
  0
INSERT
  5
BE
330
1F
100
AcDbEntity
  8
FORMAT
 62
     7
100
AcDbBlockReference
  2
SW_CENTERMARKSYMBOL_1
 10
135.1105938204
 20
378.1909958732
 30
0.0
  0
INSERT
  5
CA
330
1F
100
AcDbEntity
  8
FORMAT
 62
     7
100
AcDbBlockReference
  2
SW_CENTERMARKSYMBOL_2
 10
235.5649948163
 20
358.2093731574
 30
0.0
  0
INSERT
  5
D6
330
1F
100
AcDbEntity
  8
FORMAT
 62
     7
100
AcDbBlockReference
  2
SW_CENTERMARKSYMBOL_3
 10
320.7261238819
 20
301.3065259347
 30
0.0
  0
INSERT
  5
E2
330
1F
100
AcDbEntity
  8
FORMAT
 62
     7
100
AcDbBlockReference
  2
SW_CENTERMARKSYMBOL_4
 10
377.6289711046
 20
216.145396869
 30
0.0
  0
INSERT
  5
EE
330
1F
100
AcDbEntity
  8
FORMAT
 62
     7
100
AcDbBlockReference
  2
SW_CENTERMARKSYMBOL_5
 10
235.5649948162
 20
-126.827381411
 30
0.0
  0
INSERT
  5
FA
330
1F
100
AcDbEntity
  8
FORMAT
 62
     7
100
AcDbBlockReference
  2
SW_CENTERMARKSYMBOL_6
 10
320.7261238819
 20
-69.9245341883
 30
0.0
  0
INSERT
  5
106
330
1F
100
AcDbEntity
  8
FORMAT
 62
     7
100
AcDbBlockReference
  2
SW_CENTERMARKSYMBOL_7
 10
377.6289711046
 20
15.2365948773
 30
0.0
  0
INSERT
  5
112
330
1F
100
AcDbEntity
  8
FORMAT
 62
     7
100
AcDbBlockReference
  2
SW_CENTERMARKSYMBOL_8
 10
-107.4077834638
 20
15.2365948774
 30
0.0
  0
INSERT
  5
11E
330
1F
100
AcDbEntity
  8
FORMAT
 62
     7
100
AcDbBlockReference
  2
SW_CENTERMARKSYMBOL_9
 10
-50.5049362411
 20
-69.9245341883
 30
0.0
  0
INSERT
  5
12A
330
1F
100
AcDbEntity
  8
FORMAT
 62
     7
100
AcDbBlockReference
  2
SW_CENTERMARKSYMBOL_10
 10
34.6561928245
 20
-126.827381411
 30
0.0
  0
INSERT
  5
136
330
1F
100
AcDbEntity
  8
FORMAT
 62
     7
100
AcDbBlockReference
  2
SW_CENTERMARKSYMBOL_11
 10
135.1105938204
 20
-146.8090041268
 30
0.0
  0
INSERT
  5
142
330
1F
100
AcDbEntity
  8
FORMAT
 62
     7
100
AcDbBlockReference
  2
SW_CENTERMARKSYMBOL_12
 10
397.6105938204
 20
115.6909958732
 30
0.0
  0
INSERT
  5
14E
330
1F
100
AcDbEntity
  8
FORMAT
 62
     7
100
AcDbBlockReference
  2
SW_CENTERMARKSYMBOL_13
 10
34.6561928246
 20
358.2093731574
 30
0.0
  0
INSERT
  5
15A
330
1F
100
AcDbEntity
  8
FORMAT
 62
     7
100
AcDbBlockReference
  2
SW_CENTERMARKSYMBOL_14
 10
-50.5049362411
 20
301.3065259347
 30
0.0
  0
INSERT
  5
166
330
1F
100
AcDbEntity
  8
FORMAT
 62
     7
100
AcDbBlockReference
  2
SW_CENTERMARKSYMBOL_15
 10
-107.4077834638
 20
216.1453968691
 30
0.0
  0
INSERT
  5
172
330
1F
100
AcDbEntity
  8
FORMAT
 62
     7
100
AcDbBlockReference
  2
SW_CENTERMARKSYMBOL_16
 10
-127.3894061796
 20
115.6909958732
 30
0.0
  0
ARC
  5
173
330
1F
100
AcDbEntity
  8
0
  6
Continuous
 62
     7
370
    25
100
AcDbCircle
 10
-441.7125499801
 20
-179.3090041268
 30
0.0
 40
1.0
100
AcDbArc
 50
270.0
 51
0.0
  0
ARC
  5
174
330
1F
100
AcDbEntity
  8
0
  6
Continuous
 62
     7
370
    25
100
AcDbCircle
 10
-441.7125499801
 20
410.6909958732
 30
0.0
 40
1.0
100
AcDbArc
 50
0.0
 51
90.0
  0
LINE
  5
175
330
1F
100
AcDbEntity
  8
0
  6
Continuous
 62
     7
370
    25
100
AcDbLine
 10
-441.7125499801
 20
411.6909958732
 30
0.0
 11
-485.7125499801
 21
411.6909958732
 31
0.0
  0
LINE
  5
176
330
1F
100
AcDbEntity
  8
0
  6
Continuous
 62
     7
370
    25
100
AcDbLine
 10
-485.7125499801
 20
-180.3090041268
 30
0.0
 11
-441.7125499801
 21
-180.3090041268
 31
0.0
  0
ARC
  5
177
330
1F
100
AcDbEntity
  8
0
  6
Continuous
 62
     7
370
    25
100
AcDbCircle
 10
-485.7125499801
 20
-179.3090041268
 30
0.0
 40
1.0
100
AcDbArc
 50
180.0
 51
270.0
  0
ARC
  5
178
330
1F
100
AcDbEntity
  8
0
  6
Continuous
 62
     7
370
    25
100
AcDbCircle
 10
-485.7125499801
 20
410.6909958732
 30
0.0
 40
1.0
100
AcDbArc
 50
90.0
 51
180.0
  0
LINE
  5
179
330
1F
100
AcDbEntity
  8
0
  6
Continuous
 62
     7
370
    25
100
AcDbLine
 10
-440.7125499801
 20
115.6909958732
 30
0.0
 11
-440.7125499801
 21
-179.3090041268
 31
0.0
  0
LINE
  5
17A
330
1F
100
AcDbEntity
  8
0
  6
Continuous
 62
     7
370
    25
100
AcDbLine
 10
-440.7125499801
 20
410.6909958732
 30
0.0
 11
-440.7125499801
 21
115.6909958732
 31
0.0
  0
LINE
  5
17B
330
1F
100
AcDbEntity
  8
0
  6
Continuous
 62
     7
370
    25
100
AcDbLine
 10
-486.7125499801
 20
115.6909958732
 30
0.0
 11
-486.7125499801
 21
410.6909958732
 31
0.0
  0
LINE
  5
17C
330
1F
100
AcDbEntity
  8
0
  6
Continuous
 62
     7
370
    25
100
AcDbLine
 10
-486.7125499801
 20
-179.3090041268
 30
0.0
 11
-486.7125499801
 21
115.6909958732
 31
0.0
  0
LINE
  5
17D
330
1F
100
AcDbEntity
  8
0
  6
Continuous
 62
     1
370
    25
100
AcDbLine
 10
-441.7125499801
 20
115.6909958732
 30
0.0
 11
-441.7125499801
 21
411.6909958732
 31
0.0
  0
LINE
  5
17E
330
1F
100
AcDbEntity
  8
0
  6
Continuous
 62
     1
370
    25
100
AcDbLine
 10
-441.7125499801
 20
-180.3090041268
 30
0.0
 11
-441.7125499801
 21
115.6909958732
 31
0.0
  0
LINE
  5
17F
330
1F
100
AcDbEntity
  8
0
  6
Continuous
 62
     1
370
    25
100
AcDbLine
 10
-485.7125499801
 20
115.6909958732
 30
0.0
 11
-485.7125499801
 21
-180.3090041268
 31
0.0
  0
LINE
  5
180
330
1F
100
AcDbEntity
  8
0
  6
Continuous
 62
     1
370
    25
100
AcDbLine
 10
-485.7125499801
 20
411.6909958732
 30
0.0
 11
-485.7125499801
 21
115.6909958732
 31
0.0
  0
ARC
  5
181
330
1F
100
AcDbEntity
  8
0
  6
Continuous
 62
     7
370
    25
100
AcDbCircle
 10
693.2478755563
 20
410.6909958732
 30
0.0
 40
1.0
100
AcDbArc
 50
90.0
 51
180.0
  0
ARC
  5
182
330
1F
100
AcDbEntity
  8
0
  6
Continuous
 62
     7
370
    25
100
AcDbCircle
 10
693.2478755563
 20
-179.3090041268
 30
0.0
 40
1.0
100
AcDbArc
 50
180.0
 51
270.0
  0
LINE
  5
183
330
1F
100
AcDbEntity
  8
0
  6
Continuous
 62
     7
370
    25
100
AcDbLine
 10
693.2478755563
 20
-180.3090041268
 30
0.0
 11
737.2478755563
 21
-180.3090041268
 31
0.0
  0
LINE
  5
184
330
1F
100
AcDbEntity
  8
0
  6
Continuous
 62
     7
370
    25
100
AcDbLine
 10
737.2478755563
 20
411.6909958732
 30
0.0
 11
693.2478755563
 21
411.6909958732
 31
0.0
  0
ARC
  5
185
330
1F
100
AcDbEntity
  8
0
  6
Continuous
 62
     7
370
    25
100
AcDbCircle
 10
737.2478755563
 20
410.6909958732
 30
0.0
 40
1.0
100
AcDbArc
 50
0.0
 51
90.0
  0
ARC
  5
186
330
1F
100
AcDbEntity
  8
0
  6
Continuous
 62
     7
370
    25
100
AcDbCircle
 10
737.2478755563
 20
-179.3090041268
 30
0.0
 40
1.0
100
AcDbArc
 50
270.0
 51
0.0
  0
LINE
  5
187
330
1F
100
AcDbEntity
  8
0
  6
Continuous
 62
     7
370
    25
100
AcDbLine
 10
692.2478755563
 20
-179.3090041268
 30
0.0
 11
692.2478755563
 21
410.6909958732
 31
0.0
  0
LINE
  5
188
330
1F
100
AcDbEntity
  8
0
  6
Continuous
 62
     7
370
    25
100
AcDbLine
 10
738.2478755563
 20
410.6909958732
 30
0.0
 11
738.2478755563
 21
-179.3090041268
 31
0.0
  0
LINE
  5
189
330
1F
100
AcDbEntity
  8
0
  6
Continuous
 62
     1
370
    25
100
AcDbLine
 10
693.2478755563
 20
411.6909958732
 30
0.0
 11
693.2478755563
 21
-180.3090041268
 31
0.0
  0
LINE
  5
18A
330
1F
100
AcDbEntity
  8
0
  6
Continuous
 62
     1
370
    25
100
AcDbLine
 10
737.2478755563
 20
-180.3090041268
 30
0.0
 11
737.2478755563
 21
411.6909958732
 31
0.0
  0
ARC
  5
18B
330
1F
100
AcDbEntity
  8
0
  6
Continuous
 62
     7
370
    25
100
AcDbCircle
 10
-159.8894061796
 20
618.84568068
 30
0.0
 40
1.0
100
AcDbArc
 50
180.0
 51
270.0
  0
ARC
  5
18C
330
1F
100
AcDbEntity
  8
0
  6
Continuous
 62
     7
370
    25
100
AcDbCircle
 10
430.1105938204
 20
618.84568068
 30
0.0
 40
1.0
100
AcDbArc
 50
270.0
 51
0.0
  0
LINE
  5
18D
330
1F
100
AcDbEntity
  8
0
  6
Continuous
 62
     7
370
    25
100
AcDbLine
 10
431.1105938204
 20
618.84568068
 30
0.0
 11
431.1105938204
 21
662.84568068
 31
0.0
  0
LINE
  5
18E
330
1F
100
AcDbEntity
  8
0
  6
Continuous
 62
     7
370
    25
100
AcDbLine
 10
-160.8894061796
 20
662.84568068
 30
0.0
 11
-160.8894061796
 21
618.84568068
 31
0.0
  0
ARC
  5
18F
330
1F
100
AcDbEntity
  8
0
  6
Continuous
 62
     7
370
    25
100
AcDbCircle
 10
-159.8894061796
 20
662.84568068
 30
0.0
 40
1.0
100
AcDbArc
 50
90.0
 51
180.0
  0
ARC
  5
190
330
1F
100
AcDbEntity
  8
0
  6
Continuous
 62
     7
370
    25
100
AcDbCircle
 10
430.1105938204
 20
662.84568068
 30
0.0
 40
1.0
100
AcDbArc
 50
0.0
 51
90.0
  0
LINE
  5
191
330
1F
100
AcDbEntity
  8
0
  6
Continuous
 62
     7
370
    25
100
AcDbLine
 10
430.1105938204
 20
617.84568068
 30
0.0
 11
-159.8894061796
 21
617.84568068
 31
0.0
  0
LINE
  5
192
330
1F
100
AcDbEntity
  8
0
  6
Continuous
 62
     7
370
    25
100
AcDbLine
 10
-159.8894061793
 20
663.84568068
 30
0.0
 11
430.1105938204
 21
663.84568068
 31
0.0
  0
LINE
  5
193
330
1F
100
AcDbEntity
  8
0
  6
Continuous
 62
     1
370
    25
100
AcDbLine
 10
-160.8894061796
 20
618.84568068
 30
0.0
 11
431.1105938204
 21
618.84568068
 31
0.0
  0
LINE
  5
194
330
1F
100
AcDbEntity
  8
0
  6
Continuous
 62
     1
370
    25
100
AcDbLine
 10
431.1105938204
 20
662.84568068
 30
0.0
 11
-160.8894061796
 21
662.84568068
 31
0.0
  0
ARC
  5
195
330
1F
100
AcDbEntity
  8
0
  6
Continuous
 62
     7
370
    25
100
AcDbCircle
 10
430.1105938204
 20
-508.2971772743
 30
0.0
 40
1.0
100
AcDbArc
 50
0.0
 51
90.0
  0
ARC
  5
196
330
1F
100
AcDbEntity
  8
0
  6
Continuous
 62
     7
370
    25
100
AcDbCircle
 10
-159.8894061796
 20
-508.2971772743
 30
0.0
 40
1.0
100
AcDbArc
 50
90.0
 51
180.0
  0
LINE
  5
197
330
1F
100
AcDbEntity
  8
0
  6
Continuous
 62
     7
370
    25
100
AcDbLine
 10
-160.8894061796
 20
-508.2971772743
 30
0.0
 11
-160.8894061796
 21
-552.2971772743
 31
0.0
  0
LINE
  5
198
330
1F
100
AcDbEntity
  8
0
  6
Continuous
 62
     7
370
    25
100
AcDbLine
 10
431.1105938204
 20
-552.2971772743
 30
0.0
 11
431.1105938204
 21
-508.2971772743
 31
0.0
  0
ARC
  5
199
330
1F
100
AcDbEntity
  8
0
  6
Continuous
 62
     7
370
    25
100
AcDbCircle
 10
430.1105938204
 20
-552.2971772743
 30
0.0
 40
1.0
100
AcDbArc
 50
270.0
 51
0.0
  0
ARC
  5
19A
330
1F
100
AcDbEntity
  8
0
  6
Continuous
 62
     7
370
    25
100
AcDbCircle
 10
-159.8894061796
 20
-552.2971772743
 30
0.0
 40
1.0
100
AcDbArc
 50
180.0
 51
270.0
  0
LINE
  5
19B
330
1F
100
AcDbEntity
  8
0
  6
Continuous
 62
     7
370
    25
100
AcDbLine
 10
-159.8894061793
 20
-507.2971772743
 30
0.0
 11
430.1105938204
 21
-507.2971772743
 31
0.0
  0
LINE
  5
19C
330
1F
100
AcDbEntity
  8
0
  6
Continuous
 62
     7
370
    25
100
AcDbLine
 10
430.1105938204
 20
-553.2971772743
 30
0.0
 11
-159.8894061796
 21
-553.2971772743
 31
0.0
  0
LINE
  5
19D
330
1F
100
AcDbEntity
  8
0
  6
Continuous
 62
     1
370
    25
100
AcDbLine
 10
431.1105938204
 20
-508.2971772743
 30
0.0
 11
-160.8894061796
 21
-508.2971772743
 31
0.0
  0
LINE
  5
19E
330
1F
100
AcDbEntity
  8
0
  6
Continuous
 62
     1
370
    25
100
AcDbLine
 10
-160.8894061796
 20
-552.2971772743
 30
0.0
 11
431.1105938204
 21
-552.2971772743
 31
0.0
  0
SPLINE
  5
19F
330
1F
100
AcDbEntity
  8
0
  6
Continuous
 62
     7
370
    25
100
AcDbSpline
210
0.0
220
0.0
230
1.0
 70
     8
 71
     3
 72
    88
 73
    84
 74
     0
 42
0.00000001
 43
0.00000001
 40
0.0
 40
0.0
 40
0.0
 40
0.0
 40
0.0042152175819327
 40
0.0167266734825829
 40
0.0292419679813756
 40
0.0417609122393054
 40
0.0542832304997405
 40
0.066808588630001
 40
0.0793366200343759
 40
0.0918669475420741
 40
0.1043992006687168
 40
0.1169330282654833
 40
0.1294681069816033
 40
0.1420041461919286
 40
0.1545408901211243
 40
0.1670781178752665
 40
0.1796156420113253
 40
0.192153306167232
 40
0.2046909539284401
 40
0.2172284810313419
 40
0.2297658129637935
 40
0.2423028931752126
 40
0.2548396803861568
 40
0.267376146174585
 40
0.2799122728479676
 40
0.2924480515942264
 40
0.3049834808941709
 40
0.317518565172461
 40
0.3300533136615413
 40
0.3425877394528977
 40
0.3551218587108222
 40
0.3676556900258224
 40
0.3801892538869112
 40
0.3927225722544246
 40
0.4052556682172015
 40
0.4177885657201724
 40
0.4303212893502665
 40
0.4428538641703305
 40
0.4553863155921614
 40
0.4679186692810955
 40
0.480450951085563
 40
0.4929831869859371
 40
0.5055154030576545
 40
0.5180476254440726
 40
0.5305798724335871
 40
0.5431121694257476
 40
0.5556445426545263
 40
0.5681770183398049
 40
0.5807096226520728
 40
0.59324238166357
 40
0.6057753212808132
 40
0.6183084671528601
 40
0.630841844548804
 40
0.643375478196976
 40
0.6559093920770913
 40
0.6684436091549912
 40
0.6809781510480932
 40
0.6935130376075289
 40
0.7060482864009181
 40
0.7185839120772932
 40
0.7311199255934028
 40
0.7436563332781182
 40
0.7561931357098013
 40
0.7687303263800618
 40
0.7812678901172028
 40
0.7938058012445469
 40
0.8063440214535719
 40
0.8188824973811385
 40
0.831421157895345
 40
0.8439599098844102
 40
0.8564985946217927
 40
0.8690370594598538
 40
0.8815751204101805
 40
0.8941125594941358
 40
0.90664912294005
 40
0.9191845207306731
 40
0.9317184281220419
 40
0.9442504898470485
 40
0.9567803277565735
 40
0.9693075525980233
 40
0.9818317804384828
 40
0.9943526538640043
 40
0.9999999999999999
 40
0.9999999999999999
 40
0.9999999999999999
 40
0.9999999999999999
 10
838.1339769379023
 20
-240.307372165768
 30
0.0
 10
837.4687788123292
 20
-240.2421490474592
 30
0.0
 10
834.8291637434941
 20
-239.9833330356493
 30
0.0
 10
830.1033413019142
 20
-239.826498008616
 30
0.0
 10
823.9633089992714
 20
-239.8393771086231
 30
0.0
 10
817.7196818170506
 20
-240.1612728729596
 30
0.0
 10
811.3888715094718
 20
-240.7665064946669
 30
0.0
 10
804.9751245822407
 20
-241.6612860406239
 30
0.0
 10
798.4860759812192
 20
-242.8428534679292
 30
0.0
 10
791.9285612625283
 20
-244.3104373686026
 30
0.0
 10
785.3097218732593
 20
-246.0623212395132
 30
0.0
 10
778.6366932580381
 20
-248.0966351428602
 30
0.0
 10
771.9166745317697
 20
-250.4111504335781
 30
0.0
 10
765.1568974862209
 20
-253.0033422395346
 30
0.0
 10
758.3646239488617
 20
-255.8703803567437
 30
0.0
 10
751.5471366328525
 20
-259.0091392635043
 30
0.0
 10
744.7117325339652
 20
-262.4162028152061
 30
0.0
 10
737.8657213239417
 20
-266.0878673697623
 30
0.0
 10
731.0164140498083
 20
-270.0201488808943
 30
0.0
 10
724.1711153001447
 20
-274.2087890846219
 30
0.0
 10
717.3371118985494
 20
-278.6492645047135
 30
0.0
 10
710.5216716468891
 20
-283.3367891591322
 30
0.0
 10
703.7320384486317
 20
-288.2663188175923
 30
0.0
 10
696.9754256971958
 20
-293.4325563027207
 30
0.0
 10
690.2590095465489
 20
-298.8299569483679
 30
0.0
 10
683.5899220762623
 20
-304.452734246882
 30
0.0
 10
676.9752443684743
 20
-310.2948657090483
 30
0.0
 10
670.421999517186
 20
-316.3500989534051
 30
0.0
 10
663.937145591619
 20
-322.6119580356512
 30
0.0
 10
657.5275685755761
 20
-329.0737500238579
 30
0.0
 10
651.2000753041767
 20
-335.7285718211802
 30
0.0
 10
644.9613864183776
 20
-342.5693172344962
 30
0.0
 10
638.818129356435
 20
-349.5886842848959
 30
0.0
 10
632.7768314001634
 20
-356.7791827539328
 30
0.0
 10
626.8439127925087
 20
-364.1331419580642
 30
0.0
 10
621.0256799416944
 20
-371.642718742521
 30
0.0
 10
615.3283187260156
 20
-379.2999056849893
 30
0.0
 10
609.7578879122868
 20
-387.0965394988052
 30
0.0
 10
604.3203126999781
 20
-395.0243096248749
 30
0.0
 10
599.0213784022209
 20
-403.0747670011237
 30
0.0
 10
593.8667242741016
 20
-411.239332997974
 30
0.0
 10
588.861837497968
 20
-419.509308508136
 30
0.0
 10
584.0120473349654
 20
-427.8758831785839
 30
0.0
 10
579.3225204366712
 20
-436.3301429963513
 30
0.0
 10
574.7982543113485
 20
-444.8630812841815
 30
0.0
 10
570.4440718924723
 20
-453.4656084950503
 30
0.0
 10
566.2646156019496
 20
-462.1285637537457
 30
0.0
 10
562.264343356136
 20
-470.8427230336717
 30
0.0
 10
558.4475239792462
 20
-479.5988087954826
 30
0.0
 10
554.8182327349055
 20
-488.3874998653449
 30
0.0
 10
551.3803470805578
 20
-497.1994413520133
 30
0.0
 10
548.1375426499318
 20
-506.0252545881834
 30
0.0
 10
545.0932894682111
 20
-514.8555470810591
 30
0.0
 10
542.2508484038945
 20
-523.6809224565098
 30
0.0
 10
539.6132678605331
 20
-532.4919903805255
 30
0.0
 10
537.1833807105817
 20
-541.27937644099
 30
0.0
 10
534.9638014724129
 20
-550.0337319720119
 30
0.0
 10
532.9569237301017
 20
-558.7457438022918
 30
0.0
 10
531.1649177937996
 20
-567.4061439081944
 30
0.0
 10
529.5897285963296
 20
-576.0057189515195
 30
0.0
 10
528.233073818955
 20
-584.5353196813787
 30
0.0
 10
527.0964422360415
 20
-592.9858701793361
 30
0.0
 10
526.1810922644579
 20
-601.3483769271279
 30
0.0
 10
525.4880506989871
 20
-609.6139376771797
 30
0.0
 10
525.0181116097966
 20
-617.7737501079794
 30
0.0
 10
524.771835371984
 20
-625.8191202498152
 30
0.0
 10
524.7495477912984
 20
-633.7414706710288
 30
0.0
 10
524.95133928197
 20
-641.5323484249376
 30
0.0
 10
525.3770640388973
 20
-649.183432508999
 30
0.0
 10
526.0263384004012
 20
-656.6865330981868
 30
0.0
 10
526.8985392938783
 20
-664.0336063096589
 30
0.0
 10
527.99280266718
 20
-671.2167620527332
 30
0.0
 10
529.3080242886042
 20
-678.2282782189404
 30
0.0
 10
530.8428553107624
 20
-685.06060420715
 30
0.0
 10
532.5957089905967
 20
-691.7063585398769
 30
0.0
 10
534.5647273360488
 20
-698.1583759163533
 30
0.0
 10
536.7478971291335
 20
-704.4095725441305
 30
0.0
 10
539.1426092731379
 20
-710.4534932108118
 30
0.0
 10
541.7472972166711
 20
-716.2823191198452
 30
0.0
 10
544.5553220047753
 20
-721.8943547372719
 30
0.0
 10
547.5777901617786
 20
-727.266154600369
 30
0.0
 10
550.1767227812381
 20
-731.5072836865395
 30
0.0
 10
551.8390807881086
 20
-733.8679525633804
 30
0.0
 10
552.3558023653085
 20
-734.6017346610071
 30
0.0
  0
LINE
  5
1A0
330
1F
100
AcDbEntity
  8
0
  6
Continuous
 62
     7
370
    25
100
AcDbLine
 10
913.4660895872
 20
-271.7522677234
 30
0.0
 11
882.353391215
 21
-253.7912892633
 31
0.0
  0
LINE
  5
1A1
330
1F
100
AcDbEntity
  8
0
  6
Continuous
 62
     7
370
    25
100
AcDbLine
 10
586.3774463547
 20
-766.4922157926
 30
0.0
 11
617.4901447269
 21
-784.4531942527
 31
0.0
  0
SPLINE
  5
1A2
330
1F
100
AcDbEntity
  8
0
  6
Continuous
 62
     7
370
    25
100
AcDbSpline
210
0.0
220
0.0
230
1.0
 70
     8
 71
     3
 72
    72
 73
    68
 74
     0
 42
0.00000001
 43
0.00000001
 40
0.0
 40
0.0
 40
0.0
 40
0.0
 40
0.003700479098193
 40
0.0193070679682613
 40
0.0349184653551227
 40
0.0505344519118606
 40
0.0661546952886077
 40
0.0817787859697658
 40
0.0974062701293045
 40
0.1130366776257847
 40
0.1286695442731841
 40
0.1443044283224438
 40
0.1599409216338275
 40
0.1755786563287872
 40
0.1912173078293397
 40
0.2068565951800602
 40
0.2224962794541655
 40
0.2381361609136513
 40
0.2537760454946627
 40
0.2694157930196681
 40
0.2850553074681006
 40
0.3006945156702882
 40
0.3163333639099052
 40
0.331971814868455
 40
0.3476098449261809
 40
0.3632474418127086
 40
0.3788846025871418
 40
0.3945213319194996
 40
0.4101576406419337
 40
0.4257935445375659
 40
0.4414290633358624
 40
0.457064219885593
 40
0.47269903947926
 40
0.4883335493055638
 40
0.5039677780095806
 40
0.5196017553427372
 40
0.5352355118873676
 40
0.5508690788426385
 40
0.5665024878605885
 40
0.5821357709226216
 40
0.5977689602481343
 40
0.6134020882280342
 40
0.6290351873768307
 40
0.644668290297517
 40
0.6603014211660588
 40
0.6759346102943297
 40
0.6915678904070649
 40
0.7072012942161587
 40
0.7228348543782273
 40
0.7384686034361421
 40
0.754102573738134
 40
0.769736797327593
 40
0.7853713057955706
 40
0.8010061300867741
 40
0.8166413002483042
 40
0.8322768451085765
 40
0.8479127918717501
 40
0.8635491656105921
 40
0.8791859886380567
 40
0.8948232797349546
 40
0.9104610532080593
 40
0.9260993177501347
 40
0.9417380750706429
 40
0.9573773182642585
 40
0.9730170298836748
 40
0.9886571796853892
 40
1.0
 40
1.0
 40
1.0
 40
1.0
 10
661.5528876822847
 20
-797.9301311170688
 30
0.0
 10
662.0201369962905
 20
-797.9783129292632
 30
0.0
 10
664.4579873460026
 20
-798.2296991682302
 30
0.0
 10
668.9752440556068
 20
-798.398843220671
 30
0.0
 10
675.1015912902869
 20
-798.4252162332291
 30
0.0
 10
681.3338245263127
 20
-798.138878420169
 30
0.0
 10
687.6537041151347
 20
-797.5701376904298
 30
0.0
 10
694.0574909274217
 20
-796.7114924486782
 30
0.0
 10
700.5374289953713
 20
-795.5659948895978
 30
0.0
 10
707.0867279175868
 20
-794.1342853449739
 30
0.0
 10
713.6982447718912
 20
-792.4180638527454
 30
0.0
 10
720.36485326521
 20
-790.4191539714262
 30
0.0
 10
727.0793589267739
 20
-788.1397468935974
 30
0.0
 10
733.8345343484643
 20
-785.5823286012225
 30
0.0
 10
740.6231208453702
 20
-782.7496917544785
 30
0.0
 10
747.4378379895581
 20
-779.6449249140177
 30
0.0
 10
754.2713901961652
 20
-776.27140802227
 30
0.0
 10
761.1164691579426
 20
-772.6328087677383
 30
0.0
 10
767.9657634570228
 20
-768.7330763199919
 30
0.0
 10
774.8119673528604
 20
-764.5764347526341
 30
0.0
 10
781.6477913274316
 20
-760.1673745855269
 30
0.0
 10
788.465965035048
 20
-755.5106489522993
 30
0.0
 10
795.2592412056196
 20
-750.611269892294
 30
0.0
 10
802.0204022409047
 20
-745.4745030665528
 30
0.0
 10
808.74226692965
 20
-740.1058623211961
 30
0.0
 10
815.4176972701383
 20
-734.511104065368
 30
0.0
 10
822.0396053832228
 20
-728.6962214391026
 30
0.0
 10
828.6009604957039
 20
-722.6674382535542
 30
0.0
 10
835.0947959724026
 20
-716.4312026921978
 30
0.0
 10
841.5142163749766
 20
-709.9941807666947
 30
0.0
 10
847.8524045259949
 20
-703.3632495252884
 30
0.0
 10
854.1026285577395
 20
-696.5454900149098
 30
0.0
 10
860.2582489263926
 20
-689.5481800008165
 30
0.0
 10
866.3127253736102
 20
-682.3787864495941
 30
0.0
 10
872.2596238187776
 20
-675.0449577829613
 30
0.0
 10
878.0926231665525
 20
-667.5545159109798
 30
0.0
 10
883.8055220154621
 20
-659.91544805421
 30
0.0
 10
889.3922452544324
 20
-652.1358983650215
 30
0.0
 10
894.8468505350893
 20
-644.2241593588034
 30
0.0
 10
900.1635346085553
 20
-636.188663166214
 30
0.0
 10
905.3366395162278
 20
-628.0379726179459
 30
0.0
 10
910.3606586247355
 20
-619.7807721736852
 30
0.0
 10
915.2302424957924
 20
-611.4258587073539
 30
0.0
 10
919.9402037300911
 20
-602.9821336884983
 30
0.0
 10
924.4855232360788
 20
-594.4585926884032
 30
0.0
 10
928.8613558390016
 20
-585.8643153631438
 30
0.0
 10
933.0630361336595
 20
-577.208454178103
 30
0.0
 10
937.0860827491026
 20
-568.5002257328672
 30
0.0
 10
940.9262028290509
 20
-559.748901378657
 30
0.0
 10
944.5792965279742
 20
-550.9637973459802
 30
0.0
 10
948.0414612849391
 20
-542.1542648316863
 30
0.0
 10
951.3089958703669
 20
-533.3296800596935
 30
0.0
 10
954.3784041993401
 20
-524.4994343313227
 30
0.0
 10
957.2463989135236
 20
-515.6729240772468
 30
0.0
 10
959.9099047054906
 20
-506.8595409405032
 30
0.0
 10
962.3660614685816
 20
-498.0686618580055
 30
0.0
 10
964.6122269520305
 20
-489.3096393428103
 30
0.0
 10
966.645980112299
 20
-480.591791296589
 30
0.0
 10
968.4651207184497
 20
-471.924392942979
 30
0.0
 10
970.0676818019729
 20
-463.3166613045126
 30
0.0
 10
971.451893053892
 20
-454.7777680626633
 30
0.0
 10
972.6163262179091
 20
-446.3167471373015
 30
0.0
 10
973.5593602040442
 20
-437.9427959470963
 30
0.0
 10
974.2811841984461
 20
-429.6641082112221
 30
0.0
 10
974.7763275375845
 20
-421.4921883055998
 30
0.0
 10
975.0354202042805
 20
-414.1645657257155
 30
0.0
 10
975.0630168262286
 20
-409.6009428220096
 30
0.0
 10
975.0746176071174
 20
-407.6825344941933
 30
0.0
  0
SPLINE
  5
1A3
330
1F
100
AcDbEntity
  8
0
  6
Continuous
 62
     7
370
    25
100
AcDbSpline
210
0.0
220
0.0
230
1.0
 70
     8
 71
     3
 72
    24
 73
    20
 74
     0
 42
0.00000001
 43
0.00000001
 40
0.0
 40
0.0
 40
0.0
 40
0.0
 40
0.0328868802113138
 40
0.0953624881387553
 40
0.1578412643013827
 40
0.220320405617641
 40
0.2827991242342713
 40
0.3452766407024326
 40
0.4077520175873917
 40
0.470224146677867
 40
0.53269174069797
 40
0.595153332106532
 40
0.6576072821450885
 40
0.7200518037319331
 40
0.7824850019502458
 40
0.8449049355398951
 40
0.9073097017390355
 40
0.9696975448227833
 40
1.0
 40
1.0
 40
1.0
 40
1.0
 10
975.0746176071174
 20
-407.6825344941933
 30
0.0
 10
975.0683722765665
 20
-406.2984989596762
 30
0.0
 10
975.0502626153051
 20
-402.2851942194292
 30
0.0
 10
974.8490627350822
 20
-395.7429867941182
 30
0.0
 10
974.397600198901
 20
-388.1088192611984
 30
0.0
 10
973.7196072543469
 20
-380.625262630462
 30
0.0
 10
972.8195978894506
 20
-373.2982784316954
 30
0.0
 10
971.6974333759458
 20
-366.1363140283137
 30
0.0
 10
970.354525201812
 20
-359.1469157578087
 30
0.0
 10
968.7921786283023
 20
-352.3376539636932
 30
0.0
 10
967.0120314718869
 20
-345.7158757693677
 30
0.0
 10
965.0159663265675
 20
-339.2887267719131
 30
0.0
 10
962.8060335629298
 20
-333.063259832093
 30
0.0
 10
960.3848568389184
 20
-327.0459221373414
 30
0.0
 10
957.7540957984266
 20
-321.2444359689611
 30
0.0
 10
954.9201910178598
 20
-315.6607224343988
 30
0.0
 10
951.8729236198026
 20
-310.3172433026432
 30
0.0
 10
949.2149446398989
 20
-306.0424980442915
 30
0.0
 10
947.500139306223
 20
-303.6412523853973
 30
0.0
 10
946.9395325033938
 20
-302.8562334533914
 30
0.0
  0
SPLINE
  5
1A4
330
1F
100
AcDbEntity
  8
0
  6
Continuous
 62
     7
370
    25
100
AcDbSpline
210
0.0
220
0.0
230
1.0
 70
     8
 71
     3
 72
    22
 73
    18
 74
     0
 42
0.00000001
 43
0.00000001
 40
0.0
 40
0.0
 40
0.0
 40
0.0
 40
0.0539756670409801
 40
0.1242456253397227
 40
0.1944802872034916
 40
0.2646821582364735
 40
0.3348546865620871
 40
0.4050018343781678
 40
0.4751277245529417
 40
0.5452363755615058
 40
0.6153315218787733
 40
0.6854165076602664
 40
0.7554942378024064
 40
0.8255671704367498
 40
0.8956373369159302
 40
0.96570637816939
 40
1.0
 40
1.0
 40
1.0
 40
1.0
 10
864.0530579631896
 20
-343.7934557434602
 30
0.0
 10
864.8203349824798
 20
-344.8180590930804
 30
0.0
 10
866.5865162692829
 20
-347.176575270418
 30
0.0
 10
869.1251808275418
 20
-351.1545804875079
 30
0.0
 10
871.702067169214
 20
-355.6699870968457
 30
0.0
 10
874.0715778430375
 20
-360.4194412283167
 30
0.0
 10
876.2380876868071
 20
-365.3860508960926
 30
0.0
 10
878.196467580379
 20
-370.5653061324765
 30
0.0
 10
879.944475369152
 20
-375.9490207922248
 30
0.0
 10
881.4794466156166
 20
-381.5296239803793
 30
0.0
 10
882.7991586307127
 20
-387.2990254452632
 30
0.0
 10
883.9017131050372
 20
-393.2488626190595
 30
0.0
 10
884.7851861988329
 20
-399.3706633958261
 30
0.0
 10
885.4491951522531
 20
-405.6549846845536
 30
0.0
 10
885.8890322524834
 20
-412.0947493888779
 30
0.0
 10
886.0787059865297
 20
-417.5532993861433
 30
0.0
 10
886.0950973207708
 20
-420.8773814641028
 30
0.0
 10
886.100483521172
 20
-421.9696764510907
 30
0.0
  0
SPLINE
  5
1A5
330
1F
100
AcDbEntity
  8
0
  6
Continuous
 62
     7
370
    25
100
AcDbSpline
210
0.0
220
0.0
230
1.0
 70
     8
 71
     3
 72
    64
 73
    60
 74
     0
 42
0.00000001
 43
0.00000001
 40
0.0
 40
0.0
 40
0.0
 40
0.0
 40
0.0094274192786376
 40
0.0273504905968339
 40
0.0452749215077708
 40
0.0631999387143571
 40
0.0811256467689923
 40
0.0990521116829659
 40
0.116979368304225
 40
0.134907426626942
 40
0.1528362770245058
 40
0.1707658945363584
 40
0.1886962423412394
 40
0.2066272745423283
 40
0.2245589383780271
 40
0.2424911759585004
 40
0.2604239256142897
 40
0.2783571229302547
 40
0.2962907015265592
 40
0.3142245936381931
 40
0.3321587305360496
 40
0.3500930428255427
 40
0.3680274606531114
 40
0.3859619138466578
 40
0.4038963203010249
 40
0.421830597732794
 40
0.4397646755643522
 40
0.4576984832702752
 40
0.4756319505189194
 40
0.4935650073830173
 40
0.511497584644257
 40
0.5294296142228515
 40
0.5473610297688463
 40
0.5652917674591722
 40
0.5832217670532799
 40
0.6011509732705471
 40
0.6190793375646926
 40
0.6370068203838491
 40
0.6549333940191973
 40
0.672859046159193
 40
0.6907837842787538
 40
0.7087076410002607
 40
0.7266306805616517
 40
0.7445530065095003
 40
0.7624747706923387
 40
0.7803961835485447
 40
0.798317493336433
 40
0.816238965337741
 40
0.8341610245187521
 40
0.8520841983710924
 40
0.8700091267719816
 40
0.8879365677222563
 40
0.9058673961021639
 40
0.9238025918634507
 40
0.941743213554324
 40
0.9596903530652287
 40
0.9776450684056386
 40
0.9956082936366079
 40
1.0
 40
1.0
 40
1.0
 40
1.0
 10
886.100483521172
 20
-421.9696764510907
 30
0.0
 10
886.0942915009765
 20
-423.150533269575
 30
0.0
 10
886.0763274341278
 20
-426.5763927074111
 30
0.0
 10
885.8766461803514
 20
-432.3437014428571
 30
0.0
 10
885.4284949668656
 20
-439.3012832274185
 30
0.0
 10
884.7556297424577
 20
-446.3652986143022
 30
0.0
 10
883.862794423755
 20
-453.522950961703
 30
0.0
 10
882.7502036899496
 20
-460.7643229510634
 30
0.0
 10
881.4197010756698
 20
-468.0785881268662
 30
0.0
 10
879.8731085448477
 20
-475.4550159987692
 30
0.0
 10
878.112665480668
 20
-482.8827246620745
 30
0.0
 10
876.1409069574837
 20
-490.3507689438716
 30
0.0
 10
873.9606915187105
 20
-497.8481385235
 30
0.0
 10
871.5751882078575
 20
-505.3637800539325
 30
0.0
 10
868.987873885403
 20
-512.8866127256939
 30
0.0
 10
866.2025271976889
 20
-520.4055454600118
 30
0.0
 10
863.2232228845639
 20
-527.9094935348286
 30
0.0
 10
860.0543254650908
 20
-535.3873952279436
 30
0.0
 10
856.7004825814224
 20
-542.8282283142775
 30
0.0
 10
853.1666179451245
 20
-550.2210264522234
 30
0.0
 10
849.45792391786
 20
-557.554895438798
 30
0.0
 10
845.5798537332159
 20
-564.8190293261902
 30
0.0
 10
841.5381133721997
 20
-572.0027263870446
 30
0.0
 10
837.338654016447
 20
-579.0954033725473
 30
0.0
 10
832.9876634463724
 20
-586.0866112531384
 30
0.0
 10
828.4915561092295
 20
-592.9660523234112
 30
0.0
 10
823.8569626165325
 20
-599.7235969187584
 30
0.0
 10
819.0907198466513
 20
-606.3492983082381
 30
0.0
 10
814.1998618934716
 20
-612.8334059441697
 30
0.0
 10
809.1916097826693
 20
-619.1663799922537
 30
0.0
 10
804.0733609121789
 20
-625.3389056019595
 30
0.0
 10
798.8526782222682
 20
-631.3419069033168
 30
0.0
 10
793.5372790985156
 20
-637.1665607167636
 30
0.0
 10
788.135024008622
 20
-642.8043099625744
 30
0.0
 10
782.6539048709805
 20
-648.2468767559265
 30
0.0
 10
777.1020331492886
 20
-653.4862751725356
 30
0.0
 10
771.4876276631778
 20
-658.5148236677607
 30
0.0
 10
765.819002099875
 20
-663.3251571287519
 30
0.0
 10
760.1045522064637
 20
-667.9102385341125
 30
0.0
 10
754.3527426366036
 20
-672.2633701881334
 30
0.0
 10
748.5720934202046
 20
-676.3782044861371
 30
0.0
 10
742.7711660201636
 20
-680.2487541534967
 30
0.0
 10
736.9585489388843
 20
-683.8694018812176
 30
0.0
 10
731.142842838384
 20
-687.2349092606422
 30
0.0
 10
725.3326451533824
 20
-690.3404248774534
 30
0.0
 10
719.5365376485222
 20
-693.1814897384252
 30
0.0
 10
713.763077002065
 20
-695.7540408529054
 30
0.0
 10
708.0207705581212
 20
-698.0544215710773
 30
0.0
 10
702.3180564502553
 20
-700.079384967404
 30
0.0
 10
696.6632778861328
 20
-701.826101038533
 30
0.0
 10
691.0646810388096
 20
-703.29213499262
 30
0.0
 10
685.5303710688187
 20
-704.4755088418088
 30
0.0
 10
680.0684016291228
 20
-705.3744529874111
 30
0.0
 10
674.6863746787263
 20
-705.9883037925831
 30
0.0
 10
669.3928816952916
 20
-706.3141127939059
 30
0.0
 10
664.1920876049307
 20
-706.3592611500145
 30
0.0
 10
659.103942953434
 20
-706.0943084166902
 30
0.0
 10
655.3525854707955
 20
-705.746289502891
 30
0.0
 10
653.3386836293442
 20
-705.3963189068079
 30
0.0
 10
652.9430454009287
 20
-705.3275659299835
 30
0.0
  0
SPLINE
  5
1A6
330
1F
100
AcDbEntity
  8
0
  6
Continuous
 62
     7
370
    25
100
AcDbSpline
210
0.0
220
0.0
230
1.0
 70
     8
 71
     3
 72
    13
 73
     9
 74
     0
 42
0.00000001
 43
0.00000001
 40
0.0
 40
0.0
 40
0.0
 40
0.0
 40
0.1451954536213491
 40
0.3564335646208636
 40
0.5609547707297284
 40
0.7605057691249288
 40
0.9464438471340687
 40
1.0
 40
1.0
 40
1.0
 40
1.0
 10
873.4760624493942
 20
-573.2192735023256
 30
0.0
 10
873.6919086216104
 20
-573.3765393058059
 30
0.0
 10
874.2217793486473
 20
-573.7626038107842
 30
0.0
 10
874.8787371520365
 20
-574.6853197724882
 30
0.0
 10
875.4480858908869
 20
-575.9266751374892
 30
0.0
 10
875.7993909971781
 20
-577.3560591961577
 30
0.0
 10
875.920225655034
 20
-578.5535736984898
 30
0.0
 10
875.9275004748814
 20
-579.2486882144449
 30
0.0
 10
875.9291272838548
 20
-579.4041310371792
 30
0.0
  0
SPLINE
  5
1A7
330
1F
100
AcDbEntity
  8
0
  6
Continuous
 62
     7
370
    25
100
AcDbSpline
210
0.0
220
0.0
230
1.0
 70
     8
 71
     3
 72
    24
 73
    20
 74
     0
 42
0.00000001
 43
0.00000001
 40
0.0
 40
0.0
 40
0.0
 40
0.0
 40
0.0317280596900365
 40
0.0925115510741207
 40
0.1534387045847258
 40
0.2144889895653029
 40
0.2756453849585429
 40
0.3368712853027668
 40
0.3981230335369017
 40
0.4593474098557054
 40
0.5204890863149194
 40
0.5815017374963881
 40
0.6423447167237992
 40
0.7029964544315223
 40
0.7634855172082609
 40
0.8239286581870702
 40
0.8845697692573125
 40
0.9459919089783244
 40
0.9999999999999999
 40
0.9999999999999999
 40
0.9999999999999999
 40
0.9999999999999999
 10
875.9291272838548
 20
-579.4041310371792
 30
0.0
 10
875.9233389724708
 20
-579.7081104849915
 30
0.0
 10
875.9064616194445
 20
-580.5944429770028
 30
0.0
 10
875.7164545456312
 20
-582.1611777904767
 30
0.0
 10
875.2889628967525
 20
-584.0995015340304
 30
0.0
 10
874.6529138210075
 20
-586.0815442149814
 30
0.0
 10
873.8238076126268
 20
-588.061362072875
 30
0.0
 10
872.8174059759773
 20
-589.996592570182
 30
0.0
 10
871.6553049099904
 20
-591.8448292564688
 30
0.0
 10
870.3629028178625
 20
-593.5658880500276
 30
0.0
 10
868.9692489285155
 20
-595.1226118458625
 30
0.0
 10
867.5062712533744
 20
-596.4820207032852
 30
0.0
 10
866.0081552407797
 20
-597.6162259460231
 30
0.0
 10
864.5103674912519
 20
-598.5037304296379
 30
0.0
 10
863.0490167686421
 20
-599.1295779065051
 30
0.0
 10
861.6571878000926
 20
-599.4896470563647
 30
0.0
 10
860.3683790298622
 20
-599.5781003523367
 30
0.0
 10
859.240766462104
 20
-599.4395837428757
 30
0.0
 10
858.6174562734204
 20
-599.153471677749
 30
0.0
 10
858.3258186912328
 20
-599.0196040907542
 30
0.0
  0
SPLINE
  5
1A8
330
1F
100
AcDbEntity
  8
0
  6
Continuous
 62
     7
370
    25
100
AcDbSpline
210
0.0
220
0.0
230
1.0
 70
     8
 71
     3
 72
    77
 73
    73
 74
     0
 42
0.00000001
 43
0.00000001
 40
0.0
 40
0.0
 40
0.0
 40
0.0
 40
0.0095923880585373
 40
0.0241318070691391
 40
0.0386639259182922
 40
0.0531892648933686
 40
0.0677085385755531
 40
0.0822225672879663
 40
0.0967322041078834
 40
0.1112382801635966
 40
0.1257415675993126
 40
0.1402427576805185
 40
0.1547424507456801
 40
0.1692411547070357
 40
0.1837392892197266
 40
0.1982371932227172
 40
0.2127350789589284
 40
0.2272331448361667
 40
0.2417315607152968
 40
0.2562304499435567
 40
0.27072989745293
 40
0.285229956852517
 40
0.2997306565018596
 40
0.3142320046215817
 40
0.3287339935324196
 40
0.3432366031281447
 40
0.3577398036895863
 40
0.3722435581413117
 40
0.3867478238430961
 40
0.4012525539972048
 40
0.415757698741376
 40
0.4302632059869149
 40
0.444769022051788
 40
0.4592750921304804
 40
0.4737813606354641
 40
0.4882877714393862
 40
0.5027942680426083
 40
0.5173007936871103
 40
0.531807282107359
 40
0.5463136666026525
 40
0.5608198900853401
 40
0.5753258955092773
 40
0.5898316259840017
 40
0.604337024944568
 40
0.618842036397245
 40
0.6333466052661023
 40
0.6478506778701594
 40
0.6623542025666825
 40
0.6768571306032533
 40
0.6913594172297005
 40
0.7058610231306426
 40
0.7203619162502642
 40
0.734862074092501
 40
0.7493614865911598
 40
0.763860159654589
 40
0.7783581194955633
 40
0.7928554178558469
 40
0.8073521382209672
 40
0.8218484030864572
 40
0.8363443822715882
 40
0.8508402768227024
 40
0.8653363002478054
 40
0.8798327956879765
 40
0.8943301891442128
 40
0.9088289974711783
 40
0.9233298330520331
 40
0.9378334028455348
 40
0.9523404989126777
 40
0.9668519771057684
 40
0.9813687205915236
 40
0.9958915856185314
 40
1.0
 40
1.0
 40
1.0
 40
1.0
 10
635.4466788454654
 20
-693.9818124400094
 30
0.0
 10
634.7885969852942
 20
-693.1005627509637
 30
0.0
 10
633.1330442294594
 20
-690.8835811874558
 30
0.0
 10
630.6987999309174
 20
-687.0550721750304
 30
0.0
 10
628.1223259713286
 20
-682.5393188433129
 30
0.0
 10
625.7546669820474
 20
-677.7877832262413
 30
0.0
 10
623.5896549512565
 20
-672.8196243749067
 30
0.0
 10
621.632896854334
 20
-667.6387477598525
 30
0.0
 10
619.8865029964219
 20
-662.2535049027442
 30
0.0
 10
618.3531751611931
 20
-656.6714225585481
 30
0.0
 10
617.0351058137228
 20
-650.9006155255914
 30
0.0
 10
615.9342638798954
 20
-644.9494055506372
 30
0.0
 10
615.0523076968186
 20
-638.8264164853456
 30
0.0
 10
614.3905976241339
 20
-632.5405379960561
 30
0.0
 10
613.9501826618495
 20
-626.1009211948851
 30
0.0
 10
613.7317955790986
 20
-619.516971464731
 30
0.0
 10
613.7358455797018
 20
-612.7983275102423
 30
0.0
 10
613.9624142762808
 20
-605.9548413942906
 30
0.0
 10
614.4112543379232
 20
-598.9965529261369
 30
0.0
 10
615.0817887330793
 20
-591.933680008802
 30
0.0
 10
615.9731100542336
 20
-584.7766055803411
 30
0.0
 10
617.0839808469538
 20
-577.5358602544492
 30
0.0
 10
618.4128348297047
 20
-570.2221049261811
 30
0.0
 10
619.9577789072212
 20
-562.8461134042534
 30
0.0
 10
621.7165958920641
 20
-555.4187551068665
 30
0.0
 10
623.686747862808
 20
-547.9509778410917
 30
0.0
 10
625.8653800999019
 20
-540.4537906757906
 30
0.0
 10
628.2493255513773
 20
-532.9382469124195
 30
0.0
 10
630.8351097898859
 20
-525.4154271556033
 30
0.0
 10
633.6189564300827
 20
-517.8964224849084
 30
0.0
 10
636.5967929812767
 20
-510.3923177300296
 30
0.0
 10
639.7642571147971
 20
-502.9141748530715
 30
0.0
 10
643.1167033288789
 20
-495.4730164433591
 30
0.0
 10
646.6492099963173
 20
-488.0798093320239
 30
0.0
 10
650.3565867818436
 20
-480.7454483353259
 30
0.0
 10
654.2333824173787
 20
-473.480740137128
 30
0.0
 10
658.2738928239868
 20
-466.2963873223757
 30
0.0
 10
662.4721686703793
 20
-459.2029740942163
 30
0.0
 10
666.8220239460173
 20
-452.2109505804836
 30
0.0
 10
671.3170459023648
 20
-445.3306157027031
 30
0.0
 10
675.9506055368711
 20
-438.5721004793541
 30
0.0
 10
680.7158675189753
 20
-431.9453530857198
 30
0.0
 10
685.6057992249998
 20
-425.460125625955
 30
0.0
 10
690.6131810197421
 20
-419.1259596010361
 30
0.0
 10
695.7306168139165
 20
-412.9521716363326
 30
0.0
 10
700.9505448920289
 20
-406.9478394826692
 30
0.0
 10
706.2652490073613
 20
-401.1217883042343
 30
0.0
 10
711.6668697431194
 20
-395.4825772667989
 30
0.0
 10
717.1474161417966
 20
-390.0384864401909
 30
0.0
 10
722.6987776084303
 20
-384.7975040300778
 30
0.0
 10
728.3127360977513
 20
-379.7673139561374
 30
0.0
 10
733.9809786001631
 20
-374.9552837970159
 30
0.0
 10
739.6951099469496
 20
-370.3684531275391
 30
0.0
 10
745.4466659607823
 20
-366.0135222811113
 30
0.0
 10
751.2271269830906
 20
-361.8968415804401
 30
0.0
 10
757.0279318137954
 20
-358.0244010947826
 30
0.0
 10
762.8404921020543
 20
-354.4018209973194
 30
0.0
 10
768.656207219147
 20
-351.0343426324068
 30
0.0
 10
774.4664796533011
 20
-347.9268203855679
 30
0.0
 10
780.2627274987783
 20
-345.0837163116962
 30
0.0
 10
786.0363938682164
 20
-342.5090962383881
 30
0.0
 10
791.7789705926778
 20
-340.2066208780066
 30
0.0
 10
797.4820203067815
 20
-338.1795368191515
 30
0.0
 10
803.1371937356513
 20
-336.4306902879031
 30
0.0
 10
808.7362638047682
 20
-334.9624703469702
 30
0.0
 10
814.2710499213678
 20
-333.7770404067886
 30
0.0
 10
819.7337753369154
 20
-332.8754924209011
 30
0.0
 10
825.1157991720687
 20
-332.2610341659687
 30
0.0
 10
830.4124034115191
 20
-331.9271291488015
 30
0.0
 10
835.604954055391
 20
-331.9018263429215
 30
0.0
 10
839.5022614397546
 20
-332.0391118629178
 30
0.0
 10
841.6285383702107
 20
-332.2779843389544
 30
0.0
 10
842.097407229324
 20
-332.3306585055732
 30
0.0
  0
SPLINE
  5
1A9
330
1F
100
AcDbEntity
  8
0
  6
Continuous
 62
     7
370
    25
100
AcDbSpline
210
0.0
220
0.0
230
1.0
 70
     8
 71
     3
 72
    13
 73
     9
 74
     0
 42
0.00000001
 43
0.00000001
 40
0.0
 40
0.0
 40
0.0
 40
0.0
 40
0.1451954536213871
 40
0.3564335646209078
 40
0.5609547707297763
 40
0.760505769125018
 40
0.9464438471341684
 40
1.0
 40
1.0
 40
1.0
 40
1.0
 10
913.7124515894268
 20
-480.4537630047308
 30
0.0
 10
913.9282977616431
 20
-480.6110288082111
 30
0.0
 10
914.4581684886799
 20
-480.9970933131893
 30
0.0
 10
915.1151262920689
 20
-481.9198092748936
 30
0.0
 10
915.6844750309192
 20
-483.1611646398947
 30
0.0
 10
916.0357801372103
 20
-484.5905486985633
 30
0.0
 10
916.156614795066
 20
-485.7880632008952
 30
0.0
 10
916.1638896149136
 20
-486.4831777168499
 30
0.0
 10
916.1655164238867
 20
-486.6386205395839
 30
0.0
  0
SPLINE
  5
1AA
330
1F
100
AcDbEntity
  8
0
  6
Continuous
 62
     7
370
    25
100
AcDbSpline
210
0.0
220
0.0
230
1.0
 70
     8
 71
     3
 72
    24
 73
    20
 74
     0
 42
0.00000001
 43
0.00000001
 40
0.0
 40
0.0
 40
0.0
 40
0.0
 40
0.0317280596900365
 40
0.0925115510741394
 40
0.1534387045847538
 40
0.2144889895653188
 40
0.2756453849585609
 40
0.3368712853027919
 40
0.3981230335369276
 40
0.4593474098557412
 40
0.5204890863149568
 40
0.5815017374964231
 40
0.6423447167238319
 40
0.7029964544315548
 40
0.763485517208294
 40
0.8239286581871084
 40
0.884569769257351
 40
0.9459919089783644
 40
1.0
 40
1.0
 40
1.0
 40
1.0
 10
916.1655164238867
 20
-486.6386205395839
 30
0.0
 10
916.1597281125029
 20
-486.9425999873961
 30
0.0
 10
916.1428507594766
 20
-487.8289324794077
 30
0.0
 10
915.9528436856632
 20
-489.3956672928819
 30
0.0
 10
915.5253520367844
 20
-491.3339910364359
 30
0.0
 10
914.8893029610393
 20
-493.3160337173867
 30
0.0
 10
914.0601967526585
 20
-495.2958515752803
 30
0.0
 10
913.0537951160089
 20
-497.2310820725875
 30
0.0
 10
911.8916940500218
 20
-499.0793187588743
 30
0.0
 10
910.599291957894
 20
-500.8003775524332
 30
0.0
 10
909.2056380685468
 20
-502.3571013482679
 30
0.0
 10
907.7426603934057
 20
-503.7165102056907
 30
0.0
 10
906.2445443808109
 20
-504.8507154484283
 30
0.0
 10
904.7467566312831
 20
-505.7382199320429
 30
0.0
 10
903.2854059086735
 20
-506.3640674089102
 30
0.0
 10
901.8935769401238
 20
-506.7241365587695
 30
0.0
 10
900.6047681698936
 20
-506.8125898547413
 30
0.0
 10
899.4771556021357
 20
-506.6740732452801
 30
0.0
 10
898.8538454134523
 20
-506.3879611801535
 30
0.0
 10
898.5622078312649
 20
-506.2540935931589
 30
0.0
  0
SPLINE
  5
1AB
330
1F
100
AcDbEntity
  8
0
  6
Continuous
 62
     7
370
    25
100
AcDbSpline
210
0.0
220
0.0
230
1.0
 70
     8
 71
     3
 72
    13
 73
     9
 74
     0
 42
0.00000001
 43
0.00000001
 40
0.0
 40
0.0
 40
0.0
 40
0.0
 40
0.1451954536213788
 40
0.3564335646209154
 40
0.5609547707297794
 40
0.7605057691249953
 40
0.9464438471341475
 40
1.0
 40
1.0
 40
1.0
 40
1.0
 10
813.2580505935748
 20
-654.4458888627829
 30
0.0
 10
813.4738967657911
 20
-654.6031546662631
 30
0.0
 10
814.0037674928279
 20
-654.9892191712414
 30
0.0
 10
814.6607252962169
 20
-655.9119351329456
 30
0.0
 10
815.2300740350672
 20
-657.1532904979467
 30
0.0
 10
815.5813791413582
 20
-658.5826745566152
 30
0.0
 10
815.702213799214
 20
-659.780189058947
 30
0.0
 10
815.7094886190614
 20
-660.4753035749018
 30
0.0
 10
815.7111154280348
 20
-660.630746397636
 30
0.0
  0
SPLINE
  5
1AC
330
1F
100
AcDbEntity
  8
0
  6
Continuous
 62
     7
370
    25
100
AcDbSpline
210
0.0
220
0.0
230
1.0
 70
     8
 71
     3
 72
    24
 73
    20
 74
     0
 42
0.00000001
 43
0.00000001
 40
0.0
 40
0.0
 40
0.0
 40
0.0
 40
0.0317280596900365
 40
0.0925115510741208
 40
0.1534387045847284
 40
0.2144889895653025
 40
0.27564538495854
 40
0.3368712853027713
 40
0.398123033536909
 40
0.4593474098557236
 40
0.5204890863149437
 40
0.5815017374964119
 40
0.6423447167238304
 40
0.7029964544315336
 40
0.7634855172082887
 40
0.82392865818711
 40
0.8845697692573459
 40
0.945991908978364
 40
1.0
 40
1.0
 40
1.0
 40
1.0
 10
815.7111154280348
 20
-660.630746397636
 30
0.0
 10
815.7053271166508
 20
-660.9347258454482
 30
0.0
 10
815.6884497636246
 20
-661.8210583374595
 30
0.0
 10
815.4984426898112
 20
-663.3877931509334
 30
0.0
 10
815.0709510409325
 20
-665.3261168944873
 30
0.0
 10
814.4349019651876
 20
-667.308159575438
 30
0.0
 10
813.6057957568069
 20
-669.2879774333318
 30
0.0
 10
812.5993941201573
 20
-671.2232079306389
 30
0.0
 10
811.4372930541701
 20
-673.0714446169255
 30
0.0
 10
810.1448909620423
 20
-674.7925034104849
 30
0.0
 10
808.7512370726951
 20
-676.3492272063196
 30
0.0
 10
807.2882593975538
 20
-677.7086360637425
 30
0.0
 10
805.7901433849592
 20
-678.8428413064801
 30
0.0
 10
804.2923556354315
 20
-679.7303457900947
 30
0.0
 10
802.8310049128215
 20
-680.3561932669621
 30
0.0
 10
801.4391759442718
 20
-680.7162624168213
 30
0.0
 10
800.1503671740415
 20
-680.8047157127935
 30
0.0
 10
799.0227546062836
 20
-680.6661991033321
 30
0.0
 10
798.3994444176002
 20
-680.3800870382055
 30
0.0
 10
798.1078068354128
 20
-680.2462194512109
 30
0.0
  0
SPLINE
  5
1AD
330
1F
100
AcDbEntity
  8
0
  6
Continuous
 62
     7
370
    25
100
AcDbSpline
210
0.0
220
0.0
230
1.0
 70
     8
 71
     3
 72
    13
 73
     9
 74
     0
 42
0.00000001
 43
0.00000001
 40
0.0
 40
0.0
 40
0.0
 40
0.0
 40
0.1451954536214033
 40
0.3564335646209095
 40
0.5609547707297687
 40
0.76050576912497
 40
0.9464438471341349
 40
1.0
 40
1.0
 40
1.0
 40
1.0
 10
927.8415925108769
 20
-390.2720654218088
 30
0.0
 10
928.0574386830932
 20
-390.4293312252891
 30
0.0
 10
928.58730941013
 20
-390.8153957302674
 30
0.0
 10
929.244267213519
 20
-391.7381116919717
 30
0.0
 10
929.8136159523694
 20
-392.9794670569726
 30
0.0
 10
930.1649210586605
 20
-394.4088511156411
 30
0.0
 10
930.2857557165163
 20
-395.6063656179732
 30
0.0
 10
930.2930305363639
 20
-396.301480133928
 30
0.0
 10
930.294657345337
 20
-396.4569229566622
 30
0.0
  0
SPLINE
  5
1AE
330
1F
100
AcDbEntity
  8
0
  6
Continuous
 62
     7
370
    25
100
AcDbSpline
210
0.0
220
0.0
230
1.0
 70
     8
 71
     3
 72
    24
 73
    20
 74
     0
 42
0.00000001
 43
0.00000001
 40
0.0
 40
0.0
 40
0.0
 40
0.0
 40
0.0317280596900364
 40
0.0925115510741394
 40
0.1534387045847532
 40
0.214488989565317
 40
0.2756453849585606
 40
0.3368712853027908
 40
0.3981230335369231
 40
0.4593474098557244
 40
0.5204890863149365
 40
0.5815017374964041
 40
0.642344716723813
 40
0.7029964544315357
 40
0.7634855172082766
 40
0.8239286581870897
 40
0.8845697692573344
 40
0.9459919089783466
 40
1.0
 40
1.0
 40
1.0
 40
1.0
 10
930.294657345337
 20
-396.4569229566622
 30
0.0
 10
930.2888690339531
 20
-396.7609024044743
 30
0.0
 10
930.2719916809268
 20
-397.6472348964859
 30
0.0
 10
930.0819846071134
 20
-399.2139697099602
 30
0.0
 10
929.6544929582348
 20
-401.1522934535141
 30
0.0
 10
929.0184438824896
 20
-403.1343361344651
 30
0.0
 10
928.1893376741089
 20
-405.1141539923586
 30
0.0
 10
927.1829360374593
 20
-407.0493844896656
 30
0.0
 10
926.0208349714721
 20
-408.8976211759523
 30
0.0
 10
924.7284328793446
 20
-410.6186799695111
 30
0.0
 10
923.3347789899974
 20
-412.1754037653458
 30
0.0
 10
921.8718013148564
 20
-413.5348126227686
 30
0.0
 10
920.3736853022615
 20
-414.6690178655062
 30
0.0
 10
918.8758975527339
 20
-415.556522349121
 30
0.0
 10
917.414546830124
 20
-416.1823698259882
 30
0.0
 10
916.0227178615743
 20
-416.5424389758477
 30
0.0
 10
914.7339090913442
 20
-416.6308922718196
 30
0.0
 10
913.6062965235859
 20
-416.4923756623585
 30
0.0
 10
912.9829863349026
 20
-416.2062635972318
 30
0.0
 10
912.691348752715
 20
-416.0723960102371
 30
0.0
  0
SPLINE
  5
1AF
330
1F
100
AcDbEntity
  8
0
  6
Continuous
 62
     7
370
    25
100
AcDbSpline
210
0.0
220
0.0
230
1.0
 70
     8
 71
     3
 72
    13
 73
     9
 74
     0
 42
0.00000001
 43
0.00000001
 40
0.0
 40
0.0
 40
0.0
 40
0.0
 40
0.1451954536213791
 40
0.3564335646208968
 40
0.5609547707297453
 40
0.7605057691249557
 40
0.9464438471340912
 40
1.0
 40
1.0
 40
1.0
 40
1.0
 10
742.2260624493784
 20
-711.7675932185729
 30
0.0
 10
742.4419086215946
 20
-711.924859022053
 30
0.0
 10
742.9717793486316
 20
-712.3109235270314
 30
0.0
 10
743.6287371520207
 20
-713.2336394887355
 30
0.0
 10
744.198085890871
 20
-714.4749948537367
 30
0.0
 10
744.5493909971622
 20
-715.9043789124052
 30
0.0
 10
744.6702256550179
 20
-717.101893414737
 30
0.0
 10
744.6775004748655
 20
-717.797007930692
 30
0.0
 10
744.6791272838387
 20
-717.9524507534263
 30
0.0
  0
SPLINE
  5
1B0
330
1F
100
AcDbEntity
  8
0
  6
Continuous
 62
     7
370
    25
100
AcDbSpline
210
0.0
220
0.0
230
1.0
 70
     8
 71
     3
 72
    24
 73
    20
 74
     0
 42
0.00000001
 43
0.00000001
 40
0.0
 40
0.0
 40
0.0
 40
0.0
 40
0.0317280596900368
 40
0.0925115510741144
 40
0.1534387045847256
 40
0.2144889895653007
 40
0.2756453849585409
 40
0.3368712853027647
 40
0.3981230335368983
 40
0.4593474098556946
 40
0.5204890863149195
 40
0.581501737496381
 40
0.6423447167238028
 40
0.7029964544315201
 40
0.763485517208268
 40
0.8239286581870819
 40
0.8845697692573348
 40
0.9459919089783331
 40
1.0
 40
1.0
 40
1.0
 40
1.0
 10
744.6791272838387
 20
-717.9524507534263
 30
0.0
 10
744.6733389724548
 20
-718.2564302012385
 30
0.0
 10
744.6564616194286
 20
-719.1427626932499
 30
0.0
 10
744.4664545456152
 20
-720.7094975067237
 30
0.0
 10
744.0389628967365
 20
-722.6478212502775
 30
0.0
 10
743.4029138209916
 20
-724.6298639312283
 30
0.0
 10
742.573807612611
 20
-726.609681789122
 30
0.0
 10
741.5674059759614
 20
-728.5449122864289
 30
0.0
 10
740.4053049099746
 20
-730.3931489727156
 30
0.0
 10
739.1129028178468
 20
-732.1142077662745
 30
0.0
 10
737.7192489284998
 20
-733.6709315621092
 30
0.0
 10
736.2562712533587
 20
-735.0303404195323
 30
0.0
 10
734.7581552407639
 20
-736.1645456622698
 30
0.0
 10
733.2603674912361
 20
-737.0520501458847
 30
0.0
 10
731.7990167686262
 20
-737.6778976227523
 30
0.0
 10
730.4071878000764
 20
-738.0379667726118
 30
0.0
 10
729.1183790298462
 20
-738.1264200685838
 30
0.0
 10
727.990766462088
 20
-737.9879034591228
 30
0.0
 10
727.3674562734046
 20
-737.701791393996
 30
0.0
 10
727.0758186912169
 20
-737.5679238070014
 30
0.0
  0
SPLINE
  5
1B1
330
1F
100
AcDbEntity
  8
0
  6
Continuous
 62
     7
370
    25
100
AcDbSpline
210
0.0
220
0.0
230
1.0
 70
     8
 71
     3
 72
    13
 73
     9
 74
     0
 42
0.00000001
 43
0.00000001
 40
0.0
 40
0.0
 40
0.0
 40
0.0
 40
0.1451954536213631
 40
0.3564335646209401
 40
0.5609547707297924
 40
0.7605057691250233
 40
0.9464438471341708
 40
1.0
 40
1.0
 40
1.0
 40
1.0
 10
913.7124515894362
 20
-316.4035267114364
 30
0.0
 10
913.9282977616524
 20
-316.5607925149167
 30
0.0
 10
914.4581684886894
 20
-316.9468570198949
 30
0.0
 10
915.1151262920783
 20
-317.8695729815992
 30
0.0
 10
915.6844750309284
 20
-319.1109283466005
 30
0.0
 10
916.0357801372196
 20
-320.5403124052689
 30
0.0
 10
916.1566147950754
 20
-321.7378269076007
 30
0.0
 10
916.1638896149228
 20
-322.4329414235555
 30
0.0
 10
916.165516423896
 20
-322.5883842462895
 30
0.0
  0
SPLINE
  5
1B2
330
1F
100
AcDbEntity
  8
0
  6
Continuous
 62
     7
370
    25
100
AcDbSpline
210
0.0
220
0.0
230
1.0
 70
     8
 71
     3
 72
    24
 73
    20
 74
     0
 42
0.00000001
 43
0.00000001
 40
0.0
 40
0.0
 40
0.0
 40
0.0
 40
0.0317280596900362
 40
0.0925115510741388
 40
0.1534387045847527
 40
0.2144889895653163
 40
0.275645384958561
 40
0.3368712853027789
 40
0.3981230335369269
 40
0.4593474098557385
 40
0.5204890863149514
 40
0.5815017374964148
 40
0.6423447167238249
 40
0.7029964544315466
 40
0.7634855172082909
 40
0.8239286581871038
 40
0.8845697692573461
 40
0.9459919089783586
 40
1.0
 40
1.0
 40
1.0
 40
1.0
 10
916.165516423896
 20
-322.5883842462895
 30
0.0
 10
916.1597281125121
 20
-322.8923636941017
 30
0.0
 10
916.1428507594858
 20
-323.7786961861132
 30
0.0
 10
915.9528436856724
 20
-325.3454309995874
 30
0.0
 10
915.5253520367936
 20
-327.2837547431413
 30
0.0
 10
914.8893029610487
 20
-329.2657974240923
 30
0.0
 10
914.0601967526678
 20
-331.2456152819858
 30
0.0
 10
913.0537951160183
 20
-333.180845779293
 30
0.0
 10
911.8916940500312
 20
-335.0290824655796
 30
0.0
 10
910.5992919579032
 20
-336.7501412591388
 30
0.0
 10
909.2056380685561
 20
-338.3068650549735
 30
0.0
 10
907.742660393415
 20
-339.6662739123962
 30
0.0
 10
906.2445443808202
 20
-340.8004791551337
 30
0.0
 10
904.7467566312926
 20
-341.6879836387485
 30
0.0
 10
903.2854059086827
 20
-342.3138311156156
 30
0.0
 10
901.893576940133
 20
-342.6739002654751
 30
0.0
 10
900.6047681699027
 20
-342.7623535614469
 30
0.0
 10
899.4771556021449
 20
-342.6238369519856
 30
0.0
 10
898.8538454134615
 20
-342.3377248868591
 30
0.0
 10
898.562207831274
 20
-342.2038572998644
 30
0.0
  0
SPLINE
  5
1B3
330
1F
100
AcDbEntity
  8
0
  6
Continuous
 62
     7
370
    25
100
AcDbSpline
210
0.0
220
0.0
230
1.0
 70
     8
 71
     3
 72
    13
 73
     9
 74
     0
 42
0.00000001
 43
0.00000001
 40
0.0
 40
0.0
 40
0.0
 40
0.0
 40
0.1451954536213656
 40
0.3564335646208846
 40
0.5609547707297474
 40
0.7605057691249578
 40
0.9464438471340982
 40
1.0
 40
1.0
 40
1.0
 40
1.0
 10
671.1940743051842
 20
-736.4576767040718
 30
0.0
 10
671.4099204774005
 20
-736.6149425075521
 30
0.0
 10
671.9397912044375
 20
-737.0010070125303
 30
0.0
 10
672.5967490078264
 20
-737.9237229742346
 30
0.0
 10
673.1660977466769
 20
-739.1650783392354
 30
0.0
 10
673.517402852968
 20
-740.5944623979041
 30
0.0
 10
673.6382375108238
 20
-741.7919769002359
 30
0.0
 10
673.6455123306713
 20
-742.487091416191
 30
0.0
 10
673.6471391396445
 20
-742.6425342389252
 30
0.0
  0
SPLINE
  5
1B4
330
1F
100
AcDbEntity
  8
0
  6
Continuous
 62
     7
370
    25
100
AcDbSpline
210
0.0
220
0.0
230
1.0
 70
     8
 71
     3
 72
    24
 73
    20
 74
     0
 42
0.00000001
 43
0.00000001
 40
0.0
 40
0.0
 40
0.0
 40
0.0
 40
0.0317280596900366
 40
0.0925115510741107
 40
0.1534387045847215
 40
0.2144889895652985
 40
0.2756453849585384
 40
0.3368712853027614
 40
0.3981230335369024
 40
0.4593474098557049
 40
0.5204890863149216
 40
0.5815017374963992
 40
0.6423447167238044
 40
0.7029964544315366
 40
0.7634855172082785
 40
0.8239286581870865
 40
0.8845697692573328
 40
0.9459919089783385
 40
1.0
 40
1.0
 40
1.0
 40
1.0
 10
673.6471391396445
 20
-742.6425342389252
 30
0.0
 10
673.6413508282606
 20
-742.9465136867374
 30
0.0
 10
673.6244734752344
 20
-743.8328461787487
 30
0.0
 10
673.434466401421
 20
-745.3995809922226
 30
0.0
 10
673.0069747525424
 20
-747.3379047357762
 30
0.0
 10
672.3709256767975
 20
-749.3199474167271
 30
0.0
 10
671.5418194684167
 20
-751.2997652746208
 30
0.0
 10
670.5354178317673
 20
-753.2349957719277
 30
0.0
 10
669.3733167657803
 20
-755.0832324582146
 30
0.0
 10
668.0809146736525
 20
-756.8042912517736
 30
0.0
 10
666.6872607843053
 20
-758.3610150476085
 30
0.0
 10
665.2242831091643
 20
-759.7204239050312
 30
0.0
 10
663.7261670965693
 20
-760.8546291477692
 30
0.0
 10
662.2283793470416
 20
-761.7421336313839
 30
0.0
 10
660.7670286244318
 20
-762.3679811082511
 30
0.0
 10
659.375199655882
 20
-762.7280502581108
 30
0.0
 10
658.0863908856519
 20
-762.8165035540826
 30
0.0
 10
656.9587783178938
 20
-762.6779869446215
 30
0.0
 10
656.3354681292103
 20
-762.3918748794949
 30
0.0
 10
656.0438305470226
 20
-762.2580072925002
 30
0.0
  0
SPLINE
  5
1B5
330
1F
100
AcDbEntity
  8
0
  6
Continuous
 62
     7
370
    25
100
AcDbSpline
210
0.0
220
0.0
230
1.0
 70
     8
 71
     3
 72
    13
 73
     9
 74
     0
 42
0.00000001
 43
0.00000001
 40
0.0
 40
0.0
 40
0.0
 40
0.0
 40
0.1451954536213621
 40
0.3564335646208889
 40
0.5609547707297223
 40
0.7605057691249554
 40
0.9464438471340995
 40
1.0
 40
1.0
 40
1.0
 40
1.0
 10
873.4760624494113
 20
-270.0939622722958
 30
0.0
 10
873.6919086216275
 20
-270.2512280757761
 30
0.0
 10
874.2217793486644
 20
-270.6372925807543
 30
0.0
 10
874.8787371520534
 20
-271.5600085424584
 30
0.0
 10
875.4480858909038
 20
-272.8013639074595
 30
0.0
 10
875.799390997195
 20
-274.230747966128
 30
0.0
 10
875.9202256550509
 20
-275.42826246846
 30
0.0
 10
875.9275004748985
 20
-276.123376984415
 30
0.0
 10
875.9291272838716
 20
-276.2788198071493
 30
0.0
  0
SPLINE
  5
1B6
330
1F
100
AcDbEntity
  8
0
  6
Continuous
 62
     7
370
    25
100
AcDbSpline
210
0.0
220
0.0
230
1.0
 70
     8
 71
     3
 72
    24
 73
    20
 74
     0
 42
0.00000001
 43
0.00000001
 40
0.0
 40
0.0
 40
0.0
 40
0.0
 40
0.0317280596900369
 40
0.092511551074102
 40
0.1534387045847153
 40
0.2144889895652895
 40
0.2756453849585272
 40
0.3368712853027603
 40
0.3981230335368959
 40
0.4593474098556946
 40
0.5204890863149153
 40
0.5815017374963852
 40
0.6423447167237973
 40
0.7029964544315227
 40
0.763485517208262
 40
0.8239286581870724
 40
0.8845697692573216
 40
0.9459919089783353
 40
1.0
 40
1.0
 40
1.0
 40
1.0
 10
875.9291272838716
 20
-276.2788198071493
 30
0.0
 10
875.9233389724876
 20
-276.5827992549615
 30
0.0
 10
875.9064616194614
 20
-277.4691317469727
 30
0.0
 10
875.7164545456482
 20
-279.0358665604463
 30
0.0
 10
875.2889628967696
 20
-280.9741903039999
 30
0.0
 10
874.6529138210246
 20
-282.9562329849509
 30
0.0
 10
873.823807612644
 20
-284.9360508428445
 30
0.0
 10
872.8174059759945
 20
-286.8712813401518
 30
0.0
 10
871.6553049100075
 20
-288.7195180264384
 30
0.0
 10
870.3629028178799
 20
-290.4405768199973
 30
0.0
 10
868.9692489285328
 20
-291.9973006158321
 30
0.0
 10
867.5062712533917
 20
-293.3567094732551
 30
0.0
 10
866.0081552407968
 20
-294.4909147159929
 30
0.0
 10
864.5103674912692
 20
-295.3784191996077
 30
0.0
 10
863.0490167686593
 20
-296.0042666764751
 30
0.0
 10
861.6571878001097
 20
-296.3643358263346
 30
0.0
 10
860.3683790298793
 20
-296.4527891223068
 30
0.0
 10
859.2407664621211
 20
-296.3142725128456
 30
0.0
 10
858.6174562734375
 20
-296.028160447719
 30
0.0
 10
858.3258186912499
 20
-295.8942928607243
 30
0.0
  0
SPLINE
  5
1B7
330
1F
100
AcDbEntity
  8
0
  6
Continuous
 62
     7
370
    25
100
AcDbSpline
210
0.0
220
0.0
230
1.0
 70
     8
 71
     3
 72
    13
 73
     9
 74
     0
 42
0.00000001
 43
0.00000001
 40
0.0
 40
0.0
 40
0.0
 40
0.0
 40
0.1451954536213542
 40
0.356433564620859
 40
0.5609547707297107
 40
0.760505769124901
 40
0.9464438471340435
 40
0.9999999999999999
 40
0.9999999999999999
 40
0.9999999999999999
 40
0.9999999999999999
 10
610.9760624493694
 20
-724.7572979247759
 30
0.0
 10
611.1919086215855
 20
-724.9145637282561
 30
0.0
 10
611.7217793486225
 20
-725.3006282332344
 30
0.0
 10
612.3787371520115
 20
-726.2233441949384
 30
0.0
 10
612.9480858908619
 20
-727.4646995599394
 30
0.0
 10
613.2993909971532
 20
-728.8940836186077
 30
0.0
 10
613.420225655009
 20
-730.0915981209399
 30
0.0
 10
613.4275004748566
 20
-730.7867126368951
 30
0.0
 10
613.4291272838298
 20
-730.9421554596296
 30
0.0
  0
SPLINE
  5
1B8
330
1F
100
AcDbEntity
  8
0
  6
Continuous
 62
     7
370
    25
100
AcDbSpline
210
0.0
220
0.0
230
1.0
 70
     8
 71
     3
 72
    24
 73
    20
 74
     0
 42
0.00000001
 43
0.00000001
 40
0.0
 40
0.0
 40
0.0
 40
0.0
 40
0.0317280596900365
 40
0.0925115510741207
 40
0.1534387045847258
 40
0.2144889895653029
 40
0.2756453849585429
 40
0.3368712853027668
 40
0.3981230335369017
 40
0.4593474098557054
 40
0.5204890863149194
 40
0.5815017374963881
 40
0.6423447167237992
 40
0.7029964544315223
 40
0.7634855172082609
 40
0.8239286581870702
 40
0.8845697692573125
 40
0.9459919089783244
 40
0.9999999999999999
 40
0.9999999999999999
 40
0.9999999999999999
 40
0.9999999999999999
 10
613.4291272838298
 20
-730.9421554596296
 30
0.0
 10
613.4233389724458
 20
-731.2461349074417
 30
0.0
 10
613.4064616194196
 20
-732.1324673994532
 30
0.0
 10
613.2164545456062
 20
-733.699202212927
 30
0.0
 10
612.7889628967276
 20
-735.6375259564807
 30
0.0
 10
612.1529138209825
 20
-737.6195686374317
 30
0.0
 10
611.3238076126019
 20
-739.5993864953252
 30
0.0
 10
610.3174059759524
 20
-741.5346169926323
 30
0.0
 10
609.1553049099654
 20
-743.3828536789191
 30
0.0
 10
607.8629028178377
 20
-745.103912472478
 30
0.0
 10
606.4692489284906
 20
-746.6606362683128
 30
0.0
 10
605.0062712533496
 20
-748.0200451257355
 30
0.0
 10
603.5081552407547
 20
-749.1542503684733
 30
0.0
 10
602.010367491227
 20
-750.0417548520882
 30
0.0
 10
600.5490167686174
 20
-750.6676023289554
 30
0.0
 10
599.1571878000676
 20
-751.027671478815
 30
0.0
 10
597.8683790298375
 20
-751.116124774787
 30
0.0
 10
596.7407664620791
 20
-750.9776081653259
 30
0.0
 10
596.1174562733955
 20
-750.6914961001993
 30
0.0
 10
595.8258186912079
 20
-750.5576285132046
 30
0.0
  0
SPLINE
  5
1B9
330
1F
100
AcDbEntity
  8
0
  6
Continuous
 62
     7
370
    25
100
AcDbSpline
210
0.0
220
0.0
230
1.0
 70
     8
 71
     3
 72
    13
 73
     9
 74
     0
 42
0.00000001
 43
0.00000001
 40
0.0
 40
0.0
 40
0.0
 40
0.0
 40
0.1451954536213098
 40
0.3564335646207987
 40
0.560954770729649
 40
0.760505769124835
 40
0.946443847133955
 40
1.0
 40
1.0
 40
1.0
 40
1.0
 10
813.2580505935962
 20
-258.3935834929998
 30
0.0
 10
813.4738967658122
 20
-258.55084929648
 30
0.0
 10
814.0037674928491
 20
-258.9369138014581
 30
0.0
 10
814.6607252962382
 20
-259.8596297631619
 30
0.0
 10
815.2300740350887
 20
-261.1009851281628
 30
0.0
 10
815.5813791413801
 20
-262.5303691868312
 30
0.0
 10
815.702213799236
 20
-263.7278836891634
 30
0.0
 10
815.7094886190836
 20
-264.4229982051189
 30
0.0
 10
815.7111154280568
 20
-264.5784410278536
 30
0.0
  0
SPLINE
  5
1BA
330
1F
100
AcDbEntity
  8
0
  6
Continuous
 62
     7
370
    25
100
AcDbSpline
210
0.0
220
0.0
230
1.0
 70
     8
 71
     3
 72
    24
 73
    20
 74
     0
 42
0.00000001
 43
0.00000001
 40
0.0
 40
0.0
 40
0.0
 40
0.0
 40
0.0317280596900367
 40
0.0925115510741211
 40
0.153438704584729
 40
0.2144889895653041
 40
0.2756453849585433
 40
0.3368712853027699
 40
0.3981230335369094
 40
0.4593474098557114
 40
0.520489086314931
 40
0.581501737496394
 40
0.6423447167238006
 40
0.7029964544315297
 40
0.7634855172082678
 40
0.8239286581870788
 40
0.8845697692573207
 40
0.9459919089783332
 40
1.0
 40
1.0
 40
1.0
 40
1.0
 10
815.7111154280568
 20
-264.5784410278536
 30
0.0
 10
815.7053271166728
 20
-264.8824204756658
 30
0.0
 10
815.6884497636466
 20
-265.7687529676772
 30
0.0
 10
815.4984426898333
 20
-267.335487781151
 30
0.0
 10
815.0709510409546
 20
-269.2738115247048
 30
0.0
 10
814.4349019652095
 20
-271.2558542056557
 30
0.0
 10
813.6057957568289
 20
-273.2356720635494
 30
0.0
 10
812.5993941201795
 20
-275.1709025608563
 30
0.0
 10
811.4372930541923
 20
-277.0191392471432
 30
0.0
 10
810.1448909620646
 20
-278.7401980407021
 30
0.0
 10
808.7512370727175
 20
-280.296921836537
 30
0.0
 10
807.2882593975764
 20
-281.6563306939597
 30
0.0
 10
805.7901433849817
 20
-282.7905359366972
 30
0.0
 10
804.292355635454
 20
-283.6780404203122
 30
0.0
 10
802.8310049128442
 20
-284.3038878971795
 30
0.0
 10
801.4391759442946
 20
-284.663957047039
 30
0.0
 10
800.1503671740643
 20
-284.752410343011
 30
0.0
 10
799.0227546063061
 20
-284.61389373355
 30
0.0
 10
798.3994444176226
 20
-284.3277816684232
 30
0.0
 10
798.1078068354349
 20
-284.1939140814286
 30
0.0
  0
SPLINE
  5
1BB
330
1F
100
AcDbEntity
  8
0
  6
Continuous
 62
     7
370
    25
100
AcDbSpline
210
0.0
220
0.0
230
1.0
 70
     8
 71
     3
 72
    13
 73
     9
 74
     0
 42
0.00000001
 43
0.00000001
 40
0.0
 40
0.0
 40
0.0
 40
0.0
 40
0.1451954536213103
 40
0.3564335646208319
 40
0.5609547707296603
 40
0.7605057691248421
 40
0.9464438471339625
 40
1.0
 40
1.0
 40
1.0
 40
1.0
 10
570.7396733093449
 20
-678.4477334856356
 30
0.0
 10
570.9555194815609
 20
-678.6049992891158
 30
0.0
 10
571.4853902085978
 20
-678.9910637940939
 30
0.0
 10
572.142348011987
 20
-679.9137797557979
 30
0.0
 10
572.7116967508373
 20
-681.155135120799
 30
0.0
 10
573.0630018571288
 20
-682.5845191794671
 30
0.0
 10
573.1838365149846
 20
-683.7820336817995
 30
0.0
 10
573.1911113348323
 20
-684.4771481977548
 30
0.0
 10
573.1927381438054
 20
-684.6325910204895
 30
0.0
  0
SPLINE
  5
1BC
330
1F
100
AcDbEntity
  8
0
  6
Continuous
 62
     7
370
    25
100
AcDbSpline
210
0.0
220
0.0
230
1.0
 70
     8
 71
     3
 72
    24
 73
    20
 74
     0
 42
0.00000001
 43
0.00000001
 40
0.0
 40
0.0
 40
0.0
 40
0.0
 40
0.0317280596900367
 40
0.0925115510741208
 40
0.1534387045847261
 40
0.2144889895653046
 40
0.2756453849585463
 40
0.3368712853027694
 40
0.3981230335369085
 40
0.4593474098557119
 40
0.5204890863149259
 40
0.5815017374963921
 40
0.6423447167238051
 40
0.7029964544315261
 40
0.7634855172082706
 40
0.8239286581870814
 40
0.8845697692573239
 40
0.9459919089783339
 40
1.0
 40
1.0
 40
1.0
 40
1.0
 10
573.1927381438054
 20
-684.6325910204895
 30
0.0
 10
573.1869498324215
 20
-684.9365704683016
 30
0.0
 10
573.1700724793953
 20
-685.822902960313
 30
0.0
 10
572.9800654055819
 20
-687.389637773787
 30
0.0
 10
572.5525737567033
 20
-689.3279615173407
 30
0.0
 10
571.9165246809583
 20
-691.3100041982916
 30
0.0
 10
571.0874184725776
 20
-693.2898220561851
 30
0.0
 10
570.081016835928
 20
-695.2250525534923
 30
0.0
 10
568.918915769941
 20
-697.0732892397789
 30
0.0
 10
567.6265136778133
 20
-698.794348033338
 30
0.0
 10
566.2328597884664
 20
-700.3510718291726
 30
0.0
 10
564.7698821133251
 20
-701.7104806865955
 30
0.0
 10
563.2717661007304
 20
-702.8446859293331
 30
0.0
 10
561.7739783512027
 20
-703.732190412948
 30
0.0
 10
560.3126276285928
 20
-704.3580378898154
 30
0.0
 10
558.9207986600431
 20
-704.7181070396748
 30
0.0
 10
557.6319898898129
 20
-704.8065603356469
 30
0.0
 10
556.5043773220548
 20
-704.6680437261856
 30
0.0
 10
555.8810671333712
 20
-704.3819316610591
 30
0.0
 10
555.5894295511836
 20
-704.2480640740644
 30
0.0
  0
SPLINE
  5
1BD
330
1F
100
AcDbEntity
  8
0
  6
Continuous
 62
     7
370
    25
100
AcDbSpline
210
0.0
220
0.0
230
1.0
 70
     8
 71
     3
 72
    13
 73
     9
 74
     0
 42
0.00000001
 43
0.00000001
 40
0.0
 40
0.0
 40
0.0
 40
0.0
 40
0.1451954536213543
 40
0.3564335646208674
 40
0.5609547707297305
 40
0.7605057691249314
 40
0.9464438471340676
 40
1.0
 40
1.0
 40
1.0
 40
1.0
 10
742.2260624494023
 20
-283.0836669784989
 30
0.0
 10
742.4419086216185
 20
-283.2409327819791
 30
0.0
 10
742.9717793486554
 20
-283.6269972869573
 30
0.0
 10
743.6287371520444
 20
-284.5497132486615
 30
0.0
 10
744.1980858908948
 20
-285.7910686136624
 30
0.0
 10
744.549390997186
 20
-287.220452672331
 30
0.0
 10
744.6702256550419
 20
-288.417967174663
 30
0.0
 10
744.6775004748895
 20
-289.1130816906181
 30
0.0
 10
744.6791272838627
 20
-289.2685245133524
 30
0.0
  0
SPLINE
  5
1BE
330
1F
100
AcDbEntity
  8
0
  6
Continuous
 62
     7
370
    25
100
AcDbSpline
210
0.0
220
0.0
230
1.0
 70
     8
 71
     3
 72
    24
 73
    20
 74
     0
 42
0.00000001
 43
0.00000001
 40
0.0
 40
0.0
 40
0.0
 40
0.0
 40
0.0317280596900368
 40
0.0925115510741142
 40
0.1534387045847252
 40
0.2144889895653001
 40
0.2756453849585401
 40
0.3368712853027637
 40
0.3981230335368971
 40
0.4593474098556932
 40
0.5204890863149175
 40
0.581501737496385
 40
0.6423447167237962
 40
0.702996454431524
 40
0.7634855172082663
 40
0.8239286581870807
 40
0.8845697692573219
 40
0.945991908978334
 40
1.0
 40
1.0
 40
1.0
 40
1.0
 10
744.6791272838627
 20
-289.2685245133524
 30
0.0
 10
744.6733389724787
 20
-289.5725039611646
 30
0.0
 10
744.6564616194526
 20
-290.4588364531759
 30
0.0
 10
744.4664545456392
 20
-292.0255712666499
 30
0.0
 10
744.0389628967605
 20
-293.9638950102035
 30
0.0
 10
743.4029138210155
 20
-295.9459376911545
 30
0.0
 10
742.5738076126349
 20
-297.925755549048
 30
0.0
 10
741.5674059759854
 20
-299.860986046355
 30
0.0
 10
740.4053049099986
 20
-301.7092227326416
 30
0.0
 10
739.1129028178708
 20
-303.4302815262005
 30
0.0
 10
737.7192489285238
 20
-304.9870053220354
 30
0.0
 10
736.2562712533827
 20
-306.3464141794583
 30
0.0
 10
734.7581552407878
 20
-307.4806194221961
 30
0.0
 10
733.2603674912601
 20
-308.3681239058108
 30
0.0
 10
731.7990167686502
 20
-308.9939713826785
 30
0.0
 10
730.4071878001005
 20
-309.3540405325378
 30
0.0
 10
729.1183790298703
 20
-309.4424938285099
 30
0.0
 10
727.990766462112
 20
-309.3039772190487
 30
0.0
 10
727.3674562734286
 20
-309.0178651539221
 30
0.0
 10
727.0758186912409
 20
-308.8839975669274
 30
0.0
  0
SPLINE
  5
1BF
330
1F
100
AcDbEntity
  8
0
  6
Continuous
 62
     7
370
    25
100
AcDbSpline
210
0.0
220
0.0
230
1.0
 70
     8
 71
     3
 72
    13
 73
     9
 74
     0
 42
0.00000001
 43
0.00000001
 40
0.0
 40
0.0
 40
0.0
 40
0.0
 40
0.1451954536213737
 40
0.3564335646208937
 40
0.5609547707297282
 40
0.7605057691249382
 40
0.9464438471340838
 40
1.0
 40
1.0
 40
1.0
 40
1.0
 10
556.6105323879041
 20
-604.5791947752631
 30
0.0
 10
556.8263785601202
 20
-604.7364605787434
 30
0.0
 10
557.3562492871572
 20
-605.1225250837217
 30
0.0
 10
558.0132070905462
 20
-606.0452410454258
 30
0.0
 10
558.5825558293966
 20
-607.2865964104268
 30
0.0
 10
558.9338609356879
 20
-608.7159804690951
 30
0.0
 10
559.0546955935436
 20
-609.9134949714273
 30
0.0
 10
559.0619704133911
 20
-610.6086094873824
 30
0.0
 10
559.0635972223645
 20
-610.7640523101167
 30
0.0
  0
SPLINE
  5
1C0
330
1F
100
AcDbEntity
  8
0
  6
Continuous
 62
     7
370
    25
100
AcDbSpline
210
0.0
220
0.0
230
1.0
 70
     8
 71
     3
 72
    24
 73
    20
 74
     0
 42
0.00000001
 43
0.00000001
 40
0.0
 40
0.0
 40
0.0
 40
0.0
 40
0.0317280596900366
 40
0.0925115510741208
 40
0.1534387045847259
 40
0.2144889895653038
 40
0.2756453849585436
 40
0.3368712853027725
 40
0.3981230335369028
 40
0.4593474098557027
 40
0.5204890863149172
 40
0.5815017374963845
 40
0.6423447167237959
 40
0.7029964544315189
 40
0.76348551720826
 40
0.8239286581870726
 40
0.8845697692573158
 40
0.9459919089783292
 40
1.0
 40
1.0
 40
1.0
 40
1.0
 10
559.0635972223645
 20
-610.7640523101167
 30
0.0
 10
559.0578089109805
 20
-611.0680317579288
 30
0.0
 10
559.0409315579542
 20
-611.9543642499402
 30
0.0
 10
558.8509244841408
 20
-613.5210990634141
 30
0.0
 10
558.4234328352622
 20
-615.4594228069678
 30
0.0
 10
557.7873837595172
 20
-617.4414654879188
 30
0.0
 10
556.9582775511365
 20
-619.4212833458125
 30
0.0
 10
555.9518759144869
 20
-621.3565138431195
 30
0.0
 10
554.7897748485
 20
-623.204750529406
 30
0.0
 10
553.4973727563723
 20
-624.9258093229649
 30
0.0
 10
552.1037188670253
 20
-626.4825331187998
 30
0.0
 10
550.6407411918842
 20
-627.8419419762225
 30
0.0
 10
549.1426251792894
 20
-628.9761472189604
 30
0.0
 10
547.6448374297618
 20
-629.8636517025752
 30
0.0
 10
546.1834867071519
 20
-630.4894991794425
 30
0.0
 10
544.7916577386022
 20
-630.8495683293021
 30
0.0
 10
543.502848968372
 20
-630.9380216252741
 30
0.0
 10
542.3752364006137
 20
-630.799505015813
 30
0.0
 10
541.7519262119301
 20
-630.5133929506864
 30
0.0
 10
541.4602886297425
 20
-630.3795253636916
 30
0.0
  0
SPLINE
  5
1C1
330
1F
100
AcDbEntity
  8
0
  6
Continuous
 62
     7
370
    25
100
AcDbSpline
210
0.0
220
0.0
230
1.0
 70
     8
 71
     3
 72
    13
 73
     9
 74
     0
 42
0.00000001
 43
0.00000001
 40
0.0
 40
0.0
 40
0.0
 40
0.0
 40
0.1451954536213105
 40
0.3564335646207992
 40
0.5609547707296495
 40
0.7605057691248353
 40
0.9464438471339551
 40
1.0
 40
1.0
 40
1.0
 40
1.0
 10
671.1940743052058
 20
-340.4053713342892
 30
0.0
 10
671.4099204774221
 20
-340.5626371377692
 30
0.0
 10
671.9397912044589
 20
-340.9487016427474
 30
0.0
 10
672.5967490078481
 20
-341.8714176044513
 30
0.0
 10
673.1660977466986
 20
-343.1127729694522
 30
0.0
 10
673.5174028529899
 20
-344.5421570281205
 30
0.0
 10
673.6382375108458
 20
-345.7396715304529
 30
0.0
 10
673.6455123306934
 20
-346.4347860464081
 30
0.0
 10
673.6471391396666
 20
-346.5902288691429
 30
0.0
  0
SPLINE
  5
1C2
330
1F
100
AcDbEntity
  8
0
  6
Continuous
 62
     7
370
    25
100
AcDbSpline
210
0.0
220
0.0
230
1.0
 70
     8
 71
     3
 72
    24
 73
    20
 74
     0
 42
0.00000001
 43
0.00000001
 40
0.0
 40
0.0
 40
0.0
 40
0.0
 40
0.0317280596900366
 40
0.0925115510741211
 40
0.1534387045847289
 40
0.2144889895653039
 40
0.2756453849585431
 40
0.3368712853027697
 40
0.3981230335369091
 40
0.4593474098557111
 40
0.5204890863149306
 40
0.5815017374963937
 40
0.6423447167238001
 40
0.7029964544315292
 40
0.7634855172082673
 40
0.8239286581870783
 40
0.8845697692573201
 40
0.9459919089783326
 40
1.0
 40
1.0
 40
1.0
 40
1.0
 10
673.6471391396666
 20
-346.5902288691429
 30
0.0
 10
673.6413508282827
 20
-346.894208316955
 30
0.0
 10
673.6244734752564
 20
-347.7805408089665
 30
0.0
 10
673.434466401443
 20
-349.3472756224403
 30
0.0
 10
673.0069747525645
 20
-351.2855993659942
 30
0.0
 10
672.3709256768193
 20
-353.2676420469451
 30
0.0
 10
671.5418194684386
 20
-355.2474599048386
 30
0.0
 10
670.5354178317891
 20
-357.1826904021458
 30
0.0
 10
669.3733167658021
 20
-359.0309270884324
 30
0.0
 10
668.0809146736743
 20
-360.7519858819915
 30
0.0
 10
666.6872607843272
 20
-362.3087096778262
 30
0.0
 10
665.2242831091863
 20
-363.6681185352491
 30
0.0
 10
663.7261670965914
 20
-364.8023237779866
 30
0.0
 10
662.2283793470638
 20
-365.6898282616015
 30
0.0
 10
660.767028624454
 20
-366.3156757384689
 30
0.0
 10
659.3751996559043
 20
-366.6757448883282
 30
0.0
 10
658.0863908856741
 20
-366.7641981843003
 30
0.0
 10
656.9587783179159
 20
-366.6256815748393
 30
0.0
 10
656.3354681292324
 20
-366.3395695097125
 30
0.0
 10
656.0438305470448
 20
-366.2057019227179
 30
0.0
  0
SPLINE
  5
1C3
330
1F
100
AcDbEntity
  8
0
  6
Continuous
 62
     7
370
    25
100
AcDbSpline
210
0.0
220
0.0
230
1.0
 70
     8
 71
     3
 72
    13
 73
     9
 74
     0
 42
0.00000001
 43
0.00000001
 40
0.0
 40
0.0
 40
0.0
 40
0.0
 40
0.1451954536213395
 40
0.3564335646208557
 40
0.5609547707296831
 40
0.7605057691248849
 40
0.9464438471340164
 40
1.0
 40
1.0
 40
1.0
 40
1.0
 10
570.7396733093542
 20
-514.3974971923411
 30
0.0
 10
570.9555194815703
 20
-514.5547629958213
 30
0.0
 10
571.4853902086072
 20
-514.9408275007995
 30
0.0
 10
572.1423480119963
 20
-515.8635434625036
 30
0.0
 10
572.7116967508466
 20
-517.1048988275045
 30
0.0
 10
573.0630018571381
 20
-518.5342828861727
 30
0.0
 10
573.1838365149938
 20
-519.731797388505
 30
0.0
 10
573.1911113348414
 20
-520.4269119044602
 30
0.0
 10
573.1927381438146
 20
-520.5823547271947
 30
0.0
  0
SPLINE
  5
1C4
330
1F
100
AcDbEntity
  8
0
  6
Continuous
 62
     7
370
    25
100
AcDbSpline
210
0.0
220
0.0
230
1.0
 70
     8
 71
     3
 72
    24
 73
    20
 74
     0
 42
0.00000001
 43
0.00000001
 40
0.0
 40
0.0
 40
0.0
 40
0.0
 40
0.0317280596900366
 40
0.0925115510741205
 40
0.1534387045847257
 40
0.2144889895653036
 40
0.2756453849585434
 40
0.3368712853027709
 40
0.3981230335369086
 40
0.4593474098557126
 40
0.5204890863149271
 40
0.5815017374963979
 40
0.6423447167238091
 40
0.7029964544315268
 40
0.7634855172082695
 40
0.8239286581870784
 40
0.8845697692573222
 40
0.9459919089783331
 40
1.0
 40
1.0
 40
1.0
 40
1.0
 10
573.1927381438146
 20
-520.5823547271947
 30
0.0
 10
573.1869498324306
 20
-520.8863341750069
 30
0.0
 10
573.1700724794046
 20
-521.7726666670183
 30
0.0
 10
572.980065405591
 20
-523.3394014804921
 30
0.0
 10
572.5525737567125
 20
-525.277725224046
 30
0.0
 10
571.9165246809674
 20
-527.2597679049969
 30
0.0
 10
571.0874184725867
 20
-529.2395857628906
 30
0.0
 10
570.0810168359371
 20
-531.1748162601976
 30
0.0
 10
568.9189157699502
 20
-533.0230529464843
 30
0.0
 10
567.6265136778225
 20
-534.7441117400433
 30
0.0
 10
566.2328597884754
 20
-536.300835535878
 30
0.0
 10
564.7698821133342
 20
-537.6602443933009
 30
0.0
 10
563.2717661007393
 20
-538.7944496360386
 30
0.0
 10
561.7739783512118
 20
-539.6819541196534
 30
0.0
 10
560.3126276286022
 20
-540.3078015965207
 30
0.0
 10
558.9207986600522
 20
-540.6678707463802
 30
0.0
 10
557.6319898898222
 20
-540.7563240423522
 30
0.0
 10
556.5043773220639
 20
-540.617807432891
 30
0.0
 10
555.8810671333804
 20
-540.3316953677645
 30
0.0
 10
555.5894295511928
 20
-540.1978277807699
 30
0.0
  0
SPLINE
  5
1C5
330
1F
100
AcDbEntity
  8
0
  6
Continuous
 62
     7
370
    25
100
AcDbSpline
210
0.0
220
0.0
230
1.0
 70
     8
 71
     3
 72
    13
 73
     9
 74
     0
 42
0.00000001
 43
0.00000001
 40
0.0
 40
0.0
 40
0.0
 40
0.0
 40
0.1451954536213673
 40
0.3564335646208928
 40
0.5609547707297536
 40
0.7605057691249546
 40
0.9464438471340993
 40
0.9999999999999999
 40
0.9999999999999999
 40
0.9999999999999999
 40
0.9999999999999999
 10
610.9760624493866
 20
-421.6319866947462
 30
0.0
 10
611.1919086216029
 20
-421.7892524982265
 30
0.0
 10
611.7217793486396
 20
-422.1753170032048
 30
0.0
 10
612.3787371520287
 20
-423.098032964909
 30
0.0
 10
612.948085890879
 20
-424.3393883299099
 30
0.0
 10
613.2993909971702
 20
-425.7687723885784
 30
0.0
 10
613.4202256550261
 20
-426.9662868909103
 30
0.0
 10
613.4275004748735
 20
-427.6614014068653
 30
0.0
 10
613.4291272838467
 20
-427.8168442295996
 30
0.0
  0
SPLINE
  5
1C6
330
1F
100
AcDbEntity
  8
0
  6
Continuous
 62
     7
370
    25
100
AcDbSpline
210
0.0
220
0.0
230
1.0
 70
     8
 71
     3
 72
    24
 73
    20
 74
     0
 42
0.00000001
 43
0.00000001
 40
0.0
 40
0.0
 40
0.0
 40
0.0
 40
0.0317280596900369
 40
0.092511551074102
 40
0.1534387045847153
 40
0.2144889895652893
 40
0.275645384958527
 40
0.3368712853027601
 40
0.3981230335368957
 40
0.4593474098556942
 40
0.520489086314915
 40
0.5815017374963848
 40
0.6423447167237969
 40
0.7029964544315223
 40
0.7634855172082615
 40
0.823928658187072
 40
0.884569769257321
 40
0.9459919089783346
 40
1.0
 40
1.0
 40
1.0
 40
1.0
 10
613.4291272838467
 20
-427.8168442295996
 30
0.0
 10
613.4233389724628
 20
-428.1208236774117
 30
0.0
 10
613.4064616194364
 20
-429.0071561694229
 30
0.0
 10
613.2164545456233
 20
-430.5738909828967
 30
0.0
 10
612.7889628967447
 20
-432.5122147264503
 30
0.0
 10
612.1529138209996
 20
-434.4942574074012
 30
0.0
 10
611.323807612619
 20
-436.4740752652948
 30
0.0
 10
610.3174059759696
 20
-438.4093057626019
 30
0.0
 10
609.1553049099826
 20
-440.2575424488886
 30
0.0
 10
607.8629028178549
 20
-441.9786012424476
 30
0.0
 10
606.4692489285078
 20
-443.5353250382824
 30
0.0
 10
605.0062712533667
 20
-444.8947338957053
 30
0.0
 10
603.508155240772
 20
-446.0289391384431
 30
0.0
 10
602.0103674912442
 20
-446.916443622058
 30
0.0
 10
600.5490167686344
 20
-447.5422910989254
 30
0.0
 10
599.1571878000847
 20
-447.9023602487849
 30
0.0
 10
597.8683790298544
 20
-447.990813544757
 30
0.0
 10
596.7407664620961
 20
-447.8522969352959
 30
0.0
 10
596.1174562734126
 20
-447.5661848701693
 30
0.0
 10
595.825818691225
 20
-447.4323172831747
 30
0.0
  0
LWPOLYLINE
  5
1C7
330
1F
100
AcDbEntity
  8
0
  6
Continuous
 62
     7
370
    25
100
AcDbPolyline
 90
      183
 70
   128
 43
0.0
 10
942.2548124537
 20
-389.3133519782
 10
942.1305182579
 20
-381.0708738295
 10
941.7577837942
 20
-372.9817254217
 10
941.1370532574
 20
-365.0555467458
 10
940.2690663837
 20
-357.3017835786
 10
939.1548575695
 20
-349.7296762262
 10
937.7957546385
 20
-342.3482485121
 10
936.1933772594
 20
-335.1662970233
 10
934.3496350155
 20
-328.1923806269
 10
932.2667251293
 20
-321.434810271
 10
929.947129844
 20
-314.9016390798
 10
927.393613465
 20
-308.600652757
 10
924.609219066
 20
-302.5393603069
 10
921.5972648626
 20
-296.7249850865
 10
918.3613402573
 20
-291.1644561964
 10
914.9053015629
 20
-285.8644002241
 10
911.2332674057
 20
-280.8311333464
 10
907.3496138185
 20
-276.0706538025
 10
903.2589690245
 20
-271.588634746
 10
898.9662079224
 20
-267.3904174836
 10
894.4764462768
 20
-263.4810051102
 10
889.7950346214
 20
-259.8650565463
 10
884.9275518831
 20
-256.5468809862
 10
879.8797987329
 20
-253.5304327625
 10
874.6577906737
 20
-250.8193066334
 10
869.2677508712
 20
-248.4167334993
 10
863.7161027377
 20
-246.3255765519
 10
858.0094622772
 20
-244.5483278624
 10
852.1546302008
 20
-243.0871054119
 10
846.1585838228
 20
-241.9436505665
 10
840.0284687448
 20
-241.1193260032
 10
833.7715903409
 20
-240.615114085
 10
827.3954050513
 20
-240.4316156908
 10
820.9075114964
 20
-240.5690494991
 10
814.3156414217
 20
-241.0272517275
 10
807.6276504832
 20
-241.8056763277
 10
800.8515088863
 20
-242.9033956364
 10
793.9952918868
 20
-244.3191014808
 10
787.0671701681
 20
-246.0511067374
 10
780.0754001039
 20
-248.0973473428
 10
773.0283139185
 20
-250.4553847535
 10
765.9343097579
 20
-253.1224088517
 10
758.8018416808
 20
-256.0952412944
 10
751.6394095843
 20
-259.370339301
 10
744.4555490739
 20
-262.9437998753
 10
737.2588212921
 20
-266.8113644567
 10
730.0578027153
 20
-270.9684239956
 10
722.8610749335
 20
-275.4100244455
 10
715.6772144231
 20
-280.1308726671
 10
708.5147823266
 20
-285.1253427365
 10
701.3823142495
 20
-290.3874826493
 10
694.2883100889
 20
-295.911021414
 10
687.2412239035
 20
-301.6893765249
 10
680.2494538393
 20
-307.7156618071
 10
673.3213321206
 20
-313.9826956225
 10
666.4651151211
 20
-320.4830094285
 10
659.6889735241
 20
-327.2088566784
 10
653.0009825857
 20
-334.1522220528
 10
646.409112511
 20
-341.304831012
 10
639.9212189561
 20
-348.6581596567
 10
633.5450336665
 20
-356.2034448863
 10
627.2881552625
 20
-363.9316948417
 10
621.1580401846
 20
-371.8336996214
 10
615.1619938065
 20
-379.9000422571
 10
609.3071617302
 20
-388.1211099356
 10
603.6005212697
 20
-396.4871054553
 10
598.0488731362
 20
-404.9880589014
 10
592.6588333337
 20
-413.6138395268
 10
587.4368252745
 20
-422.3541678258
 10
582.3890721243
 20
-431.198627784
 10
577.521589386
 20
-440.1366792913
 10
572.8401777306
 20
-449.1576707029
 10
568.350416085
 20
-458.2508515328
 10
564.0576549829
 20
-467.4053852655
 10
559.9670101889
 20
-476.6103622702
 10
556.0833566016
 20
-485.8548128019
 10
552.4113224445
 20
-495.1277200741
 10
548.95528375
 20
-504.418033388
 10
545.7193591448
 20
-513.7146813018
 10
542.7074049414
 20
-523.0065848243
 10
539.9230105424
 20
-532.2826706185
 10
537.3694941634
 20
-541.5318841978
 10
535.0498988781
 20
-550.7432030994
 10
532.9669889919
 20
-559.9056500207
 10
531.123246748
 20
-569.0083059003
 10
529.5208693689
 20
-578.0403229314
 10
528.1617664379
 20
-586.9909374885
 10
527.0475576237
 20
-595.8494829552
 10
526.17957075
 20
-604.6054024352
 10
525.5588402131
 20
-613.2482613341
 10
525.1861057495
 20
-621.7677597934
 10
525.0618115537
 20
-630.1537449659
 10
525.1861057495
 20
-638.3962231145
 10
525.5588402131
 20
-646.4853715223
 10
526.17957075
 20
-654.4115501983
 10
527.0475576237
 20
-662.1653133655
 10
528.1617664379
 20
-669.7374207179
 10
529.5208693689
 20
-677.1188484319
 10
531.123246748
 20
-684.3007999208
 10
532.9669889919
 20
-691.2747163172
 10
535.0498988781
 20
-698.0322866731
 10
537.3694941634
 20
-704.5654578643
 10
539.9230105424
 20
-710.8664441871
 10
542.7074049414
 20
-716.9277366371
 10
545.7193591448
 20
-722.7421118576
 10
548.95528375
 20
-728.3026407477
 10
552.4113224445
 20
-733.60269672
 10
556.0833566016
 20
-738.6359635977
 10
559.9670101889
 20
-743.3964431415
 10
564.0576549829
 20
-747.8784621981
 10
568.350416085
 20
-752.0766794605
 10
572.8401777306
 20
-755.9860918339
 10
577.521589386
 20
-759.6020403978
 10
582.3890721243
 20
-762.9202159579
 10
587.4368252745
 20
-765.9366641816
 10
592.6588333337
 20
-768.6477903107
 10
598.0488731362
 20
-771.0503634448
 10
603.6005212697
 20
-773.1415203922
 10
609.3071617302
 20
-774.9187690816
 10
615.1619938065
 20
-776.3799915322
 10
621.1580401846
 20
-777.5234463775
 10
627.2881552625
 20
-778.3477709409
 10
633.5450336665
 20
-778.8519828591
 10
639.9212189561
 20
-779.0354812533
 10
646.409112511
 20
-778.8980474449
 10
653.0009825857
 20
-778.4398452165
 10
659.6889735241
 20
-777.6614206163
 10
666.4651151211
 20
-776.5637013076
 10
673.3213321206
 20
-775.1479954633
 10
680.2494538393
 20
-773.4159902067
 10
687.2412239035
 20
-771.3697496012
 10
694.2883100889
 20
-769.0117121905
 10
701.3823142495
 20
-766.3446880923
 10
708.5147823266
 20
-763.3718556496
 10
715.6772144231
 20
-760.0967576431
 10
722.8610749335
 20
-756.5232970688
 10
730.0578027153
 20
-752.6557324873
 10
737.2588212921
 20
-748.4986729485
 10
744.4555490739
 20
-744.0570724986
 10
751.6394095843
 20
-739.3362242769
 10
758.8018416808
 20
-734.3417542075
 10
765.9343097579
 20
-729.0796142947
 10
773.0283139185
 20
-723.5560755301
 10
780.0754001039
 20
-717.7777204192
 10
787.0671701681
 20
-711.751435137
 10
793.9952918868
 20
-705.4844013216
 10
800.8515088863
 20
-698.9840875155
 10
807.6276504832
 20
-692.2582402657
 10
814.3156414217
 20
-685.3148748913
 10
820.9075114964
 20
-678.1622659321
 10
827.3954050513
 20
-670.8089372873
 10
833.7715903409
 20
-663.2636520577
 10
840.0284687448
 20
-655.5354021023
 10
846.1585838228
 20
-647.6333973226
 10
852.1546302008
 20
-639.567054687
 10
858.0094622772
 20
-631.3459870085
 10
863.7161027377
 20
-622.9799914887
 10
869.2677508712
 20
-614.4790380427
 10
874.6577906737
 20
-605.8532574173
 10
879.8797987329
 20
-597.1129291183
 10
884.9275518831
 20
-588.2684691601
 10
889.7950346214
 20
-579.3304176527
 10
894.4764462768
 20
-570.3094262412
 10
898.9662079224
 20
-561.2162454113
 10
903.2589690245
 20
-552.0617116786
 10
907.3496138185
 20
-542.8567346739
 10
911.2332674057
 20
-533.6122841422
 10
914.9053015629
 20
-524.33937687
 10
918.3613402573
 20
-515.049063556
 10
921.5972648626
 20
-505.7524156423
 10
924.609219066
 20
-496.4605121198
 10
927.393613465
 20
-487.1844263255
 10
929.947129844
 20
-477.9352127463
 10
932.2667251293
 20
-468.7238938446
 10
934.3496350155
 20
-459.5614469234
 10
936.1933772594
 20
-450.4587910437
 10
937.7957546385
 20
-441.4267740126
 10
939.1548575695
 20
-432.4761594555
 10
940.2690663837
 20
-423.6176139889
 10
941.1370532574
 20
-414.8616945088
 10
941.7577837942
 20
-406.21883561
 10
942.1305182579
 20
-397.6993371507
 10
942.2548124537
 20
-389.3133519782
  0
ARC
  5
1C8
330
1F
100
AcDbEntity
  8
0
  6
Continuous
 62
     7
370
    25
100
AcDbCircle
 10
637.7142676262
 20
-677.5287233077
 30
0.0
 40
102.6506936325355
100
AcDbArc
 50
213.9266202137
 51
265.3393986676
  0
ARC
  5
1C9
330
1F
100
AcDbEntity
  8
0
  6
Continuous
 62
     7
370
    25
100
AcDbCircle
 10
830.9709521503
 20
-342.8104460767
 30
0.0
 40
102.720235128708
100
AcDbArc
 50
33.9095597512
 51
85.8441033322
  0
ARC
  5
1CA
330
1F
100
AcDbEntity
  8
0
  6
Continuous
 62
     7
370
    25
100
AcDbCircle
 10
860.6241483763
 20
-362.093979277
 30
0.0
 40
104.6608599112823
100
AcDbArc
 50
34.6155832706
 51
59.6761272102
  0
ARC
  5
1CB
330
1F
100
AcDbEntity
  8
0
  6
Continuous
 62
     7
370
    25
100
AcDbCircle
 10
669.3951915955
 20
-693.2263014528
 30
0.0
 40
104.9594200649193
100
AcDbArc
 50
240.3615733158
 51
265.5627526559
  0
LWPOLYLINE
  5
1CC
330
1F
100
AcDbEntity
  8
0
  6
Continuous
 62
     7
370
    25
100
AcDbPolyline
 90
       43
 70
   128
 43
0.0
 10
613.7220205027
 20
-427.4086401737
 10
613.5956557264
 20
-429.4287744947
 10
613.2193841779
 20
-431.5496800184
 10
612.6016111418
 20
-433.7239792199
 10
611.7561366468
 20
-435.903101848
 10
610.7018471962
 20
-438.0383699042
 10
609.462293874
 20
-440.0820850285
 10
608.0651662532
 20
-441.9885940021
 10
606.5416738561
 20
-443.715308565
 10
604.9258489854
 20
-445.2236567671
 10
603.2537864986
 20
-446.4799446021
 10
601.5628375087
 20
-447.4561086757
 10
599.890775022
 20
-448.1303430956
 10
598.2749501513
 20
-448.487586579
 10
596.7514577542
 20
-448.5198588967
 10
595.3543301334
 20
-448.2264391385
 10
594.1147768112
 20
-447.613881817
 10
593.0604873605
 20
-446.6958704505
 10
592.2150128656
 20
-445.492911896
 10
591.5972398295
 20
-444.0318782597
 10
591.220968281
 20
-442.3454066187
 10
591.0946035047
 20
-440.4711699629
 10
591.220968281
 20
-438.4510356418
 10
591.5972398295
 20
-436.3301301182
 10
592.2150128656
 20
-434.1558309167
 10
593.0604873605
 20
-431.9767082885
 10
594.1147768112
 20
-429.8414402323
 10
595.3543301334
 20
-427.797725108
 10
596.7514577542
 20
-425.8912161344
 10
598.2749501513
 20
-424.1645015716
 10
599.890775022
 20
-422.6561533694
 10
601.5628375087
 20
-421.3998655344
 10
603.2537864986
 20
-420.4237014608
 10
604.9258489854
 20
-419.7494670409
 10
606.5416738561
 20
-419.3922235576
 10
608.0651662532
 20
-419.3599512399
 10
609.462293874
 20
-419.653370998
 10
610.7018471962
 20
-420.2659283195
 10
611.7561366468
 20
-421.183939686
 10
612.6016111418
 20
-422.3868982406
 10
613.2193841779
 20
-423.8479318769
 10
613.5956557264
 20
-425.5344035178
 10
613.7220205027
 20
-427.4086401737
  0
LWPOLYLINE
  5
1CD
330
1F
100
AcDbEntity
  8
0
  6
Continuous
 62
     7
370
    25
100
AcDbPolyline
 90
       43
 70
   128
 43
0.0
 10
559.3564904412
 20
-610.3558482542
 10
559.2301256649
 20
-612.3759825752
 10
558.8538541164
 20
-614.4968880989
 10
558.2360810803
 20
-616.6711873004
 10
557.3906065854
 20
-618.8503099286
 10
556.3363171347
 20
-620.9855779847
 10
555.0967638125
 20
-623.029293109
 10
553.6996361917
 20
-624.9358020826
 10
552.1761437946
 20
-626.6625166455
 10
550.5603189239
 20
-628.1708648476
 10
548.8882564371
 20
-629.4271526826
 10
547.1973074473
 20
-630.4033167563
 10
545.5252449605
 20
-631.0775511761
 10
543.9094200898
 20
-631.4347946595
 10
542.3859276927
 20
-631.4670669772
 10
540.9888000719
 20
-631.173647219
 10
539.7492467497
 20
-630.5610898975
 10
538.694957299
 20
-629.643078531
 10
537.8494828041
 20
-628.4401199765
 10
537.231709768
 20
-626.9790863402
 10
536.8554382195
 20
-625.2926146993
 10
536.7290734432
 20
-623.4183780434
 10
536.8554382195
 20
-621.3982437223
 10
537.231709768
 20
-619.2773381987
 10
537.8494828041
 20
-617.1030389972
 10
538.694957299
 20
-614.923916369
 10
539.7492467497
 20
-612.7886483128
 10
540.9888000719
 20
-610.7449331886
 10
542.3859276927
 20
-608.838424215
 10
543.9094200898
 20
-607.1117096521
 10
545.5252449605
 20
-605.60336145
 10
547.1973074473
 20
-604.3470736149
 10
548.8882564371
 20
-603.3709095413
 10
550.5603189239
 20
-602.6966751214
 10
552.1761437946
 20
-602.3394316381
 10
553.6996361917
 20
-602.3071593204
 10
555.0967638125
 20
-602.6005790785
 10
556.3363171347
 20
-603.2131364
 10
557.3906065854
 20
-604.1311477666
 10
558.2360810803
 20
-605.3341063211
 10
558.8538541164
 20
-606.7951399574
 10
559.2301256649
 20
-608.4816115983
 10
559.3564904412
 20
-610.3558482542
  0
LWPOLYLINE
  5
1CE
330
1F
100
AcDbEntity
  8
0
  6
Continuous
 62
     7
370
    25
100
AcDbPolyline
 90
       43
 70
   128
 43
0.0
 10
613.7220205026
 20
-730.5339514037
 10
613.5956557264
 20
-732.5540857248
 10
613.2193841779
 20
-734.6749912484
 10
612.6016111418
 20
-736.8492904499
 10
611.7561366468
 20
-739.0284130781
 10
610.7018471962
 20
-741.1636811343
 10
609.462293874
 20
-743.2073962585
 10
608.0651662532
 20
-745.1139052321
 10
606.5416738561
 20
-746.840619795
 10
604.9258489854
 20
-748.3489679971
 10
603.2537864986
 20
-749.6052558321
 10
601.5628375087
 20
-750.5814199058
 10
599.890775022
 20
-751.2556543256
 10
598.2749501513
 20
-751.612897809
 10
596.7514577542
 20
-751.6451701267
 10
595.3543301333
 20
-751.3517503685
 10
594.1147768111
 20
-750.739193047
 10
593.0604873605
 20
-749.8211816805
 10
592.2150128656
 20
-748.618223126
 10
591.5972398294
 20
-747.1571894897
 10
591.2209682809
 20
-745.4707178488
 10
591.0946035047
 20
-743.5964811929
 10
591.2209682809
 20
-741.5763468718
 10
591.5972398294
 20
-739.4554413482
 10
592.2150128656
 20
-737.2811421467
 10
593.0604873605
 20
-735.1020195185
 10
594.1147768111
 20
-732.9667514623
 10
595.3543301333
 20
-730.9230363381
 10
596.7514577542
 20
-729.0165273645
 10
598.2749501513
 20
-727.2898128016
 10
599.890775022
 20
-725.7814645995
 10
601.5628375087
 20
-724.5251767645
 10
603.2537864986
 20
-723.5490126908
 10
604.9258489854
 20
-722.874778271
 10
606.5416738561
 20
-722.5175347876
 10
608.0651662532
 20
-722.4852624699
 10
609.462293874
 20
-722.7786822281
 10
610.7018471962
 20
-723.3912395496
 10
611.7561366468
 20
-724.3092509161
 10
612.6016111418
 20
-725.5122094706
 10
613.2193841779
 20
-726.9732431069
 10
613.5956557264
 20
-728.6597147478
 10
613.7220205026
 20
-730.5339514037
  0
LWPOLYLINE
  5
1CF
330
1F
100
AcDbEntity
  8
0
  6
Continuous
 62
     7
370
    25
100
AcDbPolyline
 90
       43
 70
   128
 43
0.0
 10
744.9720205027
 20
-717.5442466975
 10
744.8456557264
 20
-719.5643810186
 10
744.4693841779
 20
-721.6852865422
 10
743.8516111418
 20
-723.8595857437
 10
743.0061366468
 20
-726.0387083719
 10
741.9518471962
 20
-728.1739764281
 10
740.712293874
 20
-730.2176915523
 10
739.3151662532
 20
-732.1242005259
 10
737.7916738561
 20
-733.8509150888
 10
736.1758489854
 20
-735.3592632909
 10
734.5037864986
 20
-736.6155511259
 10
732.8128375087
 20
-737.5917151996
 10
731.140775022
 20
-738.2659496194
 10
729.5249501513
 20
-738.6231931028
 10
728.0014577542
 20
-738.6554654205
 10
726.6043301333
 20
-738.3620456623
 10
725.3647768111
 20
-737.7494883408
 10
724.3104873605
 20
-736.8314769743
 10
723.4650128656
 20
-735.6285184198
 10
722.8472398294
 20
-734.1674847835
 10
722.4709682809
 20
-732.4810131426
 10
722.3446035047
 20
-730.6067764867
 10
722.4709682809
 20
-728.5866421656
 10
722.8472398294
 20
-726.465736642
 10
723.4650128656
 20
-724.2914374405
 10
724.3104873605
 20
-722.1123148123
 10
725.3647768111
 20
-719.9770467561
 10
726.6043301333
 20
-717.9333316319
 10
728.0014577542
 20
-716.0268226583
 10
729.5249501513
 20
-714.3001080954
 10
731.140775022
 20
-712.7917598933
 10
732.8128375087
 20
-711.5354720583
 10
734.5037864986
 20
-710.5593079846
 10
736.1758489854
 20
-709.8850735647
 10
737.7916738561
 20
-709.5278300814
 10
739.3151662532
 20
-709.4955577637
 10
740.712293874
 20
-709.7889775219
 10
741.9518471962
 20
-710.4015348434
 10
743.0061366468
 20
-711.3195462099
 10
743.8516111418
 20
-712.5225047644
 10
744.4693841779
 20
-713.9835384007
 10
744.8456557264
 20
-715.6700100416
 10
744.9720205027
 20
-717.5442466975
  0
LWPOLYLINE
  5
1D0
330
1F
100
AcDbEntity
  8
0
  6
Continuous
 62
     7
370
    25
100
AcDbPolyline
 90
       43
 70
   128
 43
0.0
 10
876.2220205027
 20
-578.9959269813
 10
876.0956557264
 20
-581.0160613023
 10
875.7193841779
 20
-583.1369668259
 10
875.1016111418
 20
-585.3112660275
 10
874.2561366469
 20
-587.4903886556
 10
873.2018471962
 20
-589.6256567118
 10
871.962293874
 20
-591.6693718361
 10
870.5651662532
 20
-593.5758808097
 10
869.0416738561
 20
-595.3025953726
 10
867.4258489854
 20
-596.8109435747
 10
865.7537864986
 20
-598.0672314097
 10
864.0628375087
 20
-599.0433954833
 10
862.390775022
 20
-599.7176299032
 10
860.7749501513
 20
-600.0748733865
 10
859.2514577542
 20
-600.1071457043
 10
857.8543301334
 20
-599.8137259461
 10
856.6147768112
 20
-599.2011686246
 10
855.5604873605
 20
-598.2831572581
 10
854.7150128656
 20
-597.0801987035
 10
854.0972398295
 20
-595.6191650672
 10
853.720968281
 20
-593.9326934263
 10
853.5946035047
 20
-592.0584567704
 10
853.720968281
 20
-590.0383224494
 10
854.0972398295
 20
-587.9174169258
 10
854.7150128656
 20
-585.7431177242
 10
855.5604873605
 20
-583.5639950961
 10
856.6147768112
 20
-581.4287270399
 10
857.8543301334
 20
-579.3850119156
 10
859.2514577542
 20
-577.478502942
 10
860.7749501513
 20
-575.7517883791
 10
862.390775022
 20
-574.243440177
 10
864.0628375087
 20
-572.987152342
 10
865.7537864986
 20
-572.0109882684
 10
867.4258489854
 20
-571.3367538485
 10
869.0416738561
 20
-570.9795103652
 10
870.5651662532
 20
-570.9472380474
 10
871.962293874
 20
-571.2406578056
 10
873.2018471962
 20
-571.8532151271
 10
874.2561366469
 20
-572.7712264936
 10
875.1016111418
 20
-573.9741850482
 10
875.7193841779
 20
-575.4352186845
 10
876.0956557264
 20
-577.1216903254
 10
876.2220205027
 20
-578.9959269813
  0
LWPOLYLINE
  5
1D1
330
1F
100
AcDbEntity
  8
0
  6
Continuous
 62
     7
370
    25
100
AcDbPolyline
 90
       43
 70
   128
 43
0.0
 10
916.4584096427
 20
-322.1801801904
 10
916.3320448664
 20
-324.2003145114
 10
915.9557733179
 20
-326.321220035
 10
915.3380002818
 20
-328.4955192366
 10
914.4925257869
 20
-330.6746418647
 10
913.4382363362
 20
-332.8099099209
 10
912.198683014
 20
-334.8536250452
 10
910.8015553932
 20
-336.7601340188
 10
909.2780629961
 20
-338.4868485817
 10
907.6622381254
 20
-339.9951967838
 10
905.9901756387
 20
-341.2514846188
 10
904.2992266488
 20
-342.2276486924
 10
902.627164162
 20
-342.9018831123
 10
901.0113392913
 20
-343.2591265957
 10
899.4878468942
 20
-343.2913989134
 10
898.0907192734
 20
-342.9979791552
 10
896.8511659512
 20
-342.3854218337
 10
895.7968765006
 20
-341.4674104672
 10
894.9514020056
 20
-340.2644519127
 10
894.3336289695
 20
-338.8034182763
 10
893.957357421
 20
-337.1169466354
 10
893.8309926447
 20
-335.2427099795
 10
893.957357421
 20
-333.2225756585
 10
894.3336289695
 20
-331.1016701349
 10
894.9514020056
 20
-328.9273709334
 10
895.7968765006
 20
-326.7482483052
 10
896.8511659512
 20
-324.612980249
 10
898.0907192734
 20
-322.5692651247
 10
899.4878468942
 20
-320.6627561511
 10
901.0113392913
 20
-318.9360415883
 10
902.627164162
 20
-317.4276933861
 10
904.2992266488
 20
-316.1714055511
 10
905.9901756387
 20
-315.1952414775
 10
907.6622381254
 20
-314.5210070576
 10
909.2780629961
 20
-314.1637635743
 10
910.8015553932
 20
-314.1314912566
 10
912.198683014
 20
-314.4249110147
 10
913.4382363362
 20
-315.0374683362
 10
914.4925257869
 20
-315.9554797027
 10
915.3380002818
 20
-317.1584382573
 10
915.9557733179
 20
-318.6194718936
 10
916.3320448664
 20
-320.3059435345
 10
916.4584096427
 20
-322.1801801904
  0
LWPOLYLINE
  5
1D2
330
1F
100
AcDbEntity
  8
0
  6
Continuous
 62
     7
370
    25
100
AcDbPolyline
 90
       43
 70
   128
 43
0.0
 10
816.0040086469
 20
-264.1702369719
 10
815.8776438706
 20
-266.190371293
 10
815.5013723221
 20
-268.3112768166
 10
814.883599286
 20
-270.4855760181
 10
814.0381247911
 20
-272.6646986463
 10
812.9838353404
 20
-274.7999667025
 10
811.7442820182
 20
-276.8436818268
 10
810.3471543974
 20
-278.7501908004
 10
808.8236620003
 20
-280.4769053632
 10
807.2078371296
 20
-281.9852535654
 10
805.5357746428
 20
-283.2415414004
 10
803.8448256529
 20
-284.217705474
 10
802.1727631662
 20
-284.8919398939
 10
800.5569382955
 20
-285.2491833772
 10
799.0334458984
 20
-285.2814556949
 10
797.6363182776
 20
-284.9880359368
 10
796.3967649554
 20
-284.3754786153
 10
795.3424755047
 20
-283.4574672488
 10
794.4970010098
 20
-282.2545086942
 10
793.8792279737
 20
-280.7934750579
 10
793.5029564252
 20
-279.107003417
 10
793.3765916489
 20
-277.2327667611
 10
793.5029564252
 20
-275.2126324401
 10
793.8792279737
 20
-273.0917269164
 10
794.4970010098
 20
-270.9174277149
 10
795.3424755047
 20
-268.7383050868
 10
796.3967649554
 20
-266.6030370306
 10
797.6363182776
 20
-264.5593219063
 10
799.0334458984
 20
-262.6528129327
 10
800.5569382955
 20
-260.9260983698
 10
802.1727631662
 20
-259.4177501677
 10
803.8448256529
 20
-258.1614623327
 10
805.5357746428
 20
-257.1852982591
 10
807.2078371296
 20
-256.5110638392
 10
808.8236620003
 20
-256.1538203558
 10
810.3471543974
 20
-256.1215480381
 10
811.7442820182
 20
-256.4149677963
 10
812.9838353404
 20
-257.0275251178
 10
814.0381247911
 20
-257.9455364843
 10
814.883599286
 20
-259.1484950388
 10
815.5013723221
 20
-260.6095286751
 10
815.8776438706
 20
-262.2960003161
 10
816.0040086469
 20
-264.1702369719
  0
LWPOLYLINE
  5
1D3
330
1F
100
AcDbEntity
  8
0
  6
Continuous
 62
     7
370
    25
100
AcDbPolyline
 90
       43
 70
   128
 43
0.0
 10
744.9720205027
 20
-288.8603204574
 10
744.8456557264
 20
-290.8804547785
 10
744.4693841779
 20
-293.0013603021
 10
743.8516111418
 20
-295.1756595036
 10
743.0061366469
 20
-297.3547821318
 10
741.9518471962
 20
-299.490050188
 10
740.712293874
 20
-301.5337653122
 10
739.3151662532
 20
-303.4402742858
 10
737.7916738561
 20
-305.1669888487
 10
736.1758489854
 20
-306.6753370509
 10
734.5037864986
 20
-307.9316248859
 10
732.8128375088
 20
-308.9077889595
 10
731.140775022
 20
-309.5820233794
 10
729.5249501513
 20
-309.9392668627
 10
728.0014577542
 20
-309.9715391804
 10
726.6043301334
 20
-309.6781194223
 10
725.3647768112
 20
-309.0655621008
 10
724.3104873605
 20
-308.1475507343
 10
723.4650128656
 20
-306.9445921797
 10
722.8472398295
 20
-305.4835585434
 10
722.470968281
 20
-303.7970869025
 10
722.3446035047
 20
-301.9228502466
 10
722.470968281
 20
-299.9027159256
 10
722.8472398295
 20
-297.7818104019
 10
723.4650128656
 20
-295.6075112004
 10
724.3104873605
 20
-293.4283885723
 10
725.3647768112
 20
-291.2931205161
 10
726.6043301334
 20
-289.2494053918
 10
728.0014577542
 20
-287.3428964182
 10
729.5249501513
 20
-285.6161818553
 10
731.140775022
 20
-284.1078336532
 10
732.8128375088
 20
-282.8515458182
 10
734.5037864986
 20
-281.8753817446
 10
736.1758489854
 20
-281.2011473247
 10
737.7916738561
 20
-280.8439038413
 10
739.3151662532
 20
-280.8116315236
 10
740.712293874
 20
-281.1050512818
 10
741.9518471962
 20
-281.7176086033
 10
743.0061366469
 20
-282.6356199698
 10
743.8516111418
 20
-283.8385785243
 10
744.4693841779
 20
-285.2996121606
 10
744.8456557264
 20
-286.9860838016
 10
744.9720205027
 20
-288.8603204574
  0
LWPOLYLINE
  5
1D4
330
1F
100
AcDbEntity
  8
0
  6
Continuous
 62
     7
370
    25
100
AcDbPolyline
 90
      157
 70
   128
 43
0.0
 10
886.39337674
 20
-421.5614723952
 10
886.2695083232
 20
-428.7347973306
 10
885.8981039879
 20
-436.0395025366
 10
885.2797661534
 20
-443.4637397546
 10
884.4154977657
 20
-450.9954668446
 10
883.3067006714
 20
-458.6224673179
 10
881.9551733434
 20
-466.3323701516
 10
880.3631079641
 20
-474.1126698554
 10
878.5330868692
 20
-481.9507467545
 10
876.4680783597
 20
-489.8338874596
 10
874.171431887
 20
-497.7493054876
 10
871.6468726199
 20
-505.6841620016
 10
868.898495403
 20
-513.6255866352
 10
865.930758114
 20
-521.5606983687
 10
862.7484744337
 20
-529.4766264218
 10
859.3568060379
 20
-537.3605311303
 10
855.7612542251
 20
-545.1996247719
 10
851.9676509935
 20
-552.9811923081
 10
847.9821495814
 20
-560.6926120077
 10
843.8112144867
 20
-568.32137592
 10
839.4616109814
 20
-575.8551101619
 10
834.9403941382
 20
-583.281594989
 10
830.2548973874
 20
-590.5887846156
 10
825.4127206219
 20
-597.7648267536
 10
820.4217178701
 20
-604.7980818362
 10
815.2899845567
 20
-611.6771418981
 10
810.0258443718
 20
-618.3908490787
 10
804.6378357703
 20
-624.9283137203
 10
799.1346981216
 20
-631.2789320315
 10
793.5253575351
 20
-637.432403286
 10
787.8189123819
 20
-643.3787465311
 10
782.0246185369
 20
-649.1083167762
 10
776.1518743657
 20
-654.6118206374
 10
770.2102054811
 20
-659.8803314114
 10
764.2092492915
 20
-664.9053035544
 10
758.1587393699
 20
-669.6785865432
 10
752.0684896656
 20
-674.1924380953
 10
745.9483785857
 20
-678.4395367271
 10
739.808332973
 20
-682.412993629
 10
733.6583120037
 20
-686.1063638394
 10
727.5082910344
 20
-689.5136566982
 10
721.3682454216
 20
-692.6293455642
 10
715.2481343418
 20
-695.4483767784
 10
709.1578846374
 20
-697.9661778619
 10
703.1073747159
 20
-700.1786649323
 10
697.1064185263
 20
-702.0822493273
 10
691.1647496416
 20
-703.6738434261
 10
685.2920054705
 20
-704.9508656573
 10
679.4977116254
 20
-705.9112446862
 10
673.7912664722
 20
-706.5534227744
 10
668.1819258858
 20
-706.8763583067
 10
662.6787882371
 20
-706.8795274806
 10
657.2907796355
 20
-706.5629251555
 10
652.0266394507
 20
-705.9270648618
 10
646.8949061373
 20
-704.9729779669
 10
641.9039033855
 20
-703.7022120035
 10
637.06172662
 20
-702.1168281585
 10
632.3762298692
 20
-700.2193979304
 10
627.855013026
 20
-698.0129989578
 10
623.5054095207
 20
-695.501210028
 10
619.334474426
 20
-692.6881052719
 10
615.3489730139
 20
-689.5782475556
 10
611.5553697823
 20
-686.1766810797
 10
607.9598179695
 20
-682.4889231975
 10
604.5681495737
 20
-678.5209554658
 10
601.3858658934
 20
-674.2792139427
 10
598.4181286044
 20
-669.7705787484
 10
595.6697513874
 20
-665.0023629058
 10
593.1451921204
 20
-659.9823004785
 10
590.8485456476
 20
-654.7185340259
 10
588.7835371382
 20
-649.2196013965
 10
586.9535160433
 20
-643.4944218793
 10
585.3614506639
 20
-637.5522817362
 10
584.009923336
 20
-631.4028191404
 10
582.9011262417
 20
-625.0560085426
 10
582.036857854
 20
-618.5221444928
 10
581.4185200194
 20
-611.8118249425
 10
581.0471156842
 20
-604.9359340545
 10
580.9232472674
 20
-597.9056245489
 10
581.0471156842
 20
-590.7322996135
 10
581.4185200194
 20
-583.4275944075
 10
582.036857854
 20
-576.0033571895
 10
582.9011262417
 20
-568.4716300995
 10
584.009923336
 20
-560.8446296262
 10
585.3614506639
 20
-553.1347267924
 10
586.9535160433
 20
-545.3544270887
 10
588.7835371382
 20
-537.5163501896
 10
590.8485456476
 20
-529.6332094845
 10
593.1451921204
 20
-521.7177914565
 10
595.6697513874
 20
-513.7829349425
 10
598.4181286044
 20
-505.8415103088
 10
601.3858658934
 20
-497.9063985753
 10
604.5681495737
 20
-489.9904705222
 10
607.9598179695
 20
-482.1065658137
 10
611.5553697823
 20
-474.2674721721
 10
615.3489730139
 20
-466.485904636
 10
619.334474426
 20
-458.7744849363
 10
623.5054095207
 20
-451.145721024
 10
627.855013026
 20
-443.6119867821
 10
632.3762298692
 20
-436.1855019551
 10
637.06172662
 20
-428.8783123284
 10
641.9039033855
 20
-421.7022701905
 10
646.8949061373
 20
-414.6690151078
 10
652.0266394507
 20
-407.7899550459
 10
657.2907796355
 20
-401.0762478654
 10
662.6787882371
 20
-394.5387832237
 10
668.1819258858
 20
-388.1881649126
 10
673.7912664722
 20
-382.034693658
 10
679.4977116254
 20
-376.088350413
 10
685.2920054705
 20
-370.3587801679
 10
691.1647496416
 20
-364.8552763067
 10
697.1064185263
 20
-359.5867655327
 10
703.1073747159
 20
-354.5617933897
 10
709.1578846375
 20
-349.7885104009
 10
715.2481343418
 20
-345.2746588488
 10
721.3682454216
 20
-341.027560217
 10
727.5082910344
 20
-337.0541033151
 10
733.6583120037
 20
-333.3607331047
 10
739.808332973
 20
-329.9534402458
 10
745.9483785857
 20
-326.8377513799
 10
752.0684896656
 20
-324.0187201657
 10
758.1587393699
 20
-321.5009190822
 10
764.2092492915
 20
-319.2884320118
 10
770.2102054811
 20
-317.3848476168
 10
776.1518743657
 20
-315.793253518
 10
782.0246185369
 20
-314.5162312867
 10
787.8189123819
 20
-313.5558522579
 10
793.5253575351
 20
-312.9136741697
 10
799.1346981216
 20
-312.5907386374
 10
804.6378357703
 20
-312.5875694635
 10
810.0258443718
 20
-312.9041717885
 10
815.2899845567
 20
-313.5400320823
 10
820.4217178701
 20
-314.4941189771
 10
825.4127206219
 20
-315.7648849406
 10
830.2548973874
 20
-317.3502687855
 10
834.9403941382
 20
-319.2476990137
 10
839.4616109814
 20
-321.4540979863
 10
843.8112144867
 20
-323.965886916
 10
847.9821495814
 20
-326.7789916722
 10
851.9676509935
 20
-329.8888493885
 10
855.7612542251
 20
-333.2904158643
 10
859.3568060379
 20
-336.9781737465
 10
862.7484744337
 20
-340.9461414783
 10
865.930758114
 20
-345.1878830014
 10
868.898495403
 20
-349.6965181956
 10
871.6468726199
 20
-354.4647340382
 10
874.171431887
 20
-359.4847964656
 10
876.4680783597
 20
-364.7485629182
 10
878.5330868692
 20
-370.2474955475
 10
880.3631079641
 20
-375.9726750648
 10
881.9551733434
 20
-381.9148152078
 10
883.3067006714
 20
-388.0642778037
 10
884.4154977657
 20
-394.4110884015
 10
885.2797661534
 20
-400.9449524512
 10
885.8981039879
 20
-407.6552720015
 10
886.2695083232
 20
-414.5311628896
 10
886.39337674
 20
-421.5614723952
  0
LWPOLYLINE
  5
1D5
330
1F
100
AcDbEntity
  8
0
  6
Continuous
 62
     7
370
    25
100
AcDbPolyline
 90
       43
 70
   128
 43
0.0
 10
930.5875505642
 20
-396.0487189008
 10
930.4611857879
 20
-398.0688532218
 10
930.0849142394
 20
-400.1897587454
 10
929.4671412033
 20
-402.3640579469
 10
928.6216667083
 20
-404.5431805751
 10
927.5673772577
 20
-406.6784486313
 10
926.3278239355
 20
-408.7221637556
 10
924.9306963147
 20
-410.6286727292
 10
923.4072039176
 20
-412.355387292
 10
921.7913790469
 20
-413.8637354942
 10
920.1193165601
 20
-415.1200233292
 10
918.4283675702
 20
-416.0961874028
 10
916.7563050835
 20
-416.7704218227
 10
915.1404802128
 20
-417.127665306
 10
913.6169878157
 20
-417.1599376237
 10
912.2198601948
 20
-416.8665178656
 10
910.9803068726
 20
-416.2539605441
 10
909.926017422
 20
-415.3359491776
 10
909.0805429271
 20
-414.132990623
 10
908.4627698909
 20
-412.6719569867
 10
908.0864983424
 20
-410.9854853458
 10
907.9601335662
 20
-409.1112486899
 10
908.0864983424
 20
-407.0911143689
 10
908.4627698909
 20
-404.9702088452
 10
909.0805429271
 20
-402.7959096437
 10
909.926017422
 20
-400.6167870156
 10
910.9803068726
 20
-398.4815189594
 10
912.2198601948
 20
-396.4378038351
 10
913.6169878157
 20
-394.5312948615
 10
915.1404802128
 20
-392.8045802986
 10
916.7563050835
 20
-391.2962320965
 10
918.4283675702
 20
-390.0399442615
 10
920.1193165601
 20
-389.0637801879
 10
921.7913790469
 20
-388.389545768
 10
923.4072039176
 20
-388.0323022846
 10
924.9306963147
 20
-388.0000299669
 10
926.3278239355
 20
-388.2934497251
 10
927.5673772577
 20
-388.9060070466
 10
928.6216667083
 20
-389.8240184131
 10
929.4671412033
 20
-391.0269769676
 10
930.0849142394
 20
-392.4880106039
 10
930.4611857879
 20
-394.1744822449
 10
930.5875505642
 20
-396.0487189008
  0
LWPOLYLINE
  5
1D6
330
1F
100
AcDbEntity
  8
0
  6
Continuous
 62
     7
370
    25
100
AcDbPolyline
 90
       43
 70
   128
 43
0.0
 10
876.2220205027
 20
-275.8706157512
 10
876.0956557264
 20
-277.8907500723
 10
875.7193841779
 20
-280.0116555959
 10
875.1016111418
 20
-282.1859547974
 10
874.2561366469
 20
-284.3650774256
 10
873.2018471962
 20
-286.5003454818
 10
871.962293874
 20
-288.544060606
 10
870.5651662532
 20
-290.4505695796
 10
869.0416738561
 20
-292.1772841425
 10
867.4258489854
 20
-293.6856323446
 10
865.7537864986
 20
-294.9419201797
 10
864.0628375088
 20
-295.9180842533
 10
862.390775022
 20
-296.5923186732
 10
860.7749501513
 20
-296.9495621565
 10
859.2514577542
 20
-296.9818344742
 10
857.8543301334
 20
-296.6884147161
 10
856.6147768112
 20
-296.0758573946
 10
855.5604873605
 20
-295.1578460281
 10
854.7150128656
 20
-293.9548874735
 10
854.0972398295
 20
-292.4938538372
 10
853.720968281
 20
-290.8073821963
 10
853.5946035047
 20
-288.9331455404
 10
853.720968281
 20
-286.9130112194
 10
854.0972398295
 20
-284.7921056957
 10
854.7150128656
 20
-282.6178064942
 10
855.5604873605
 20
-280.438683866
 10
856.6147768112
 20
-278.3034158099
 10
857.8543301334
 20
-276.2597006856
 10
859.2514577542
 20
-274.353191712
 10
860.7749501513
 20
-272.6264771491
 10
862.390775022
 20
-271.118128947
 10
864.0628375088
 20
-269.861841112
 10
865.7537864986
 20
-268.8856770384
 10
867.4258489854
 20
-268.2114426185
 10
869.0416738561
 20
-267.8541991351
 10
870.5651662532
 20
-267.8219268174
 10
871.962293874
 20
-268.1153465756
 10
873.2018471962
 20
-268.7279038971
 10
874.2561366469
 20
-269.6459152636
 10
875.1016111418
 20
-270.8488738181
 10
875.7193841779
 20
-272.3099074544
 10
876.0956557264
 20
-273.9963790954
 10
876.2220205027
 20
-275.8706157512
  0
LWPOLYLINE
  5
1D7
330
1F
100
AcDbEntity
  8
0
  6
Continuous
 62
     7
370
    25
100
AcDbPolyline
 90
       43
 70
   128
 43
0.0
 10
916.4584096427
 20
-486.2304164837
 10
916.3320448664
 20
-488.2505508047
 10
915.9557733179
 20
-490.3714563283
 10
915.3380002818
 20
-492.5457555299
 10
914.4925257869
 20
-494.724878158
 10
913.4382363362
 20
-496.8601462142
 10
912.198683014
 20
-498.9038613385
 10
910.8015553932
 20
-500.8103703121
 10
909.2780629961
 20
-502.537084875
 10
907.6622381254
 20
-504.0454330771
 10
905.9901756387
 20
-505.3017209121
 10
904.2992266488
 20
-506.2778849857
 10
902.627164162
 20
-506.9521194056
 10
901.0113392913
 20
-507.3093628889
 10
899.4878468942
 20
-507.3416352067
 10
898.0907192734
 20
-507.0482154485
 10
896.8511659512
 20
-506.435658127
 10
895.7968765005
 20
-505.5176467605
 10
894.9514020056
 20
-504.3146882059
 10
894.3336289695
 20
-502.8536545696
 10
893.957357421
 20
-501.1671829287
 10
893.8309926447
 20
-499.2929462728
 10
893.957357421
 20
-497.2728119518
 10
894.3336289695
 20
-495.1519064282
 10
894.9514020056
 20
-492.9776072266
 10
895.7968765005
 20
-490.7984845985
 10
896.8511659512
 20
-488.6632165423
 10
898.0907192734
 20
-486.619501418
 10
899.4878468942
 20
-484.7129924444
 10
901.0113392913
 20
-482.9862778816
 10
902.627164162
 20
-481.4779296794
 10
904.2992266488
 20
-480.2216418444
 10
905.9901756387
 20
-479.2454777708
 10
907.6622381254
 20
-478.5712433509
 10
909.2780629961
 20
-478.2139998676
 10
910.8015553932
 20
-478.1817275498
 10
912.198683014
 20
-478.475147308
 10
913.4382363362
 20
-479.0877046295
 10
914.4925257869
 20
-480.005715996
 10
915.3380002818
 20
-481.2086745506
 10
915.9557733179
 20
-482.6697081869
 10
916.3320448664
 20
-484.3561798278
 10
916.4584096427
 20
-486.2304164837
  0
LWPOLYLINE
  5
1D8
330
1F
100
AcDbEntity
  8
0
  6
Continuous
 62
     7
370
    25
100
AcDbPolyline
 90
       43
 70
   128
 43
0.0
 10
816.0040086468
 20
-660.2225423417
 10
815.8776438706
 20
-662.2426766628
 10
815.5013723221
 20
-664.3635821864
 10
814.883599286
 20
-666.5378813879
 10
814.038124791
 20
-668.7170040161
 10
812.9838353404
 20
-670.8522720723
 10
811.7442820182
 20
-672.8959871965
 10
810.3471543974
 20
-674.8024961701
 10
808.8236620003
 20
-676.529210733
 10
807.2078371296
 20
-678.0375589351
 10
805.5357746428
 20
-679.2938467702
 10
803.8448256529
 20
-680.2700108438
 10
802.1727631662
 20
-680.9442452637
 10
800.5569382955
 20
-681.301488747
 10
799.0334458984
 20
-681.3337610647
 10
797.6363182775
 20
-681.0403413066
 10
796.3967649553
 20
-680.427783985
 10
795.3424755047
 20
-679.5097726185
 10
794.4970010098
 20
-678.306814064
 10
793.8792279736
 20
-676.8457804277
 10
793.5029564251
 20
-675.1593087868
 10
793.3765916489
 20
-673.2850721309
 10
793.5029564251
 20
-671.2649378099
 10
793.8792279736
 20
-669.1440322862
 10
794.4970010098
 20
-666.9697330847
 10
795.3424755047
 20
-664.7906104565
 10
796.3967649553
 20
-662.6553424003
 10
797.6363182775
 20
-660.6116272761
 10
799.0334458984
 20
-658.7051183025
 10
800.5569382955
 20
-656.9784037396
 10
802.1727631662
 20
-655.4700555375
 10
803.8448256529
 20
-654.2137677025
 10
805.5357746428
 20
-653.2376036288
 10
807.2078371296
 20
-652.563369209
 10
808.8236620003
 20
-652.2061257256
 10
810.3471543974
 20
-652.1738534079
 10
811.7442820182
 20
-652.4672731661
 10
812.9838353404
 20
-653.0798304876
 10
814.038124791
 20
-653.9978418541
 10
814.883599286
 20
-655.2008004086
 10
815.5013723221
 20
-656.6618340449
 10
815.8776438706
 20
-658.3483056858
 10
816.0040086468
 20
-660.2225423417
  0
LWPOLYLINE
  5
1D9
330
1F
100
AcDbEntity
  8
0
  6
Continuous
 62
     7
370
    25
100
AcDbPolyline
 90
       43
 70
   128
 43
0.0
 10
673.9400323585
 20
-742.234330183
 10
673.8136675822
 20
-744.2544645041
 10
673.4373960337
 20
-746.3753700277
 10
672.8196229976
 20
-748.5496692292
 10
671.9741485026
 20
-750.7287918574
 10
670.919859052
 20
-752.8640599136
 10
669.6803057298
 20
-754.9077750378
 10
668.283178109
 20
-756.8142840114
 10
666.7596857119
 20
-758.5409985743
 10
665.1438608412
 20
-760.0493467764
 10
663.4717983544
 20
-761.3056346114
 10
661.7808493645
 20
-762.2817986851
 10
660.1087868778
 20
-762.9560331049
 10
658.4929620071
 20
-763.3132765883
 10
656.96946961
 20
-763.345548906
 10
655.5723419892
 20
-763.0521291478
 10
654.332788667
 20
-762.4395718263
 10
653.2784992163
 20
-761.5215604598
 10
652.4330247214
 20
-760.3186019053
 10
651.8152516853
 20
-758.857568269
 10
651.4389801368
 20
-757.1710966281
 10
651.3126153605
 20
-755.2968599722
 10
651.4389801368
 20
-753.2767256511
 10
651.8152516853
 20
-751.1558201275
 10
652.4330247214
 20
-748.981520926
 10
653.2784992163
 20
-746.8023982978
 10
654.332788667
 20
-744.6671302416
 10
655.5723419892
 20
-742.6234151174
 10
656.96946961
 20
-740.7169061438
 10
658.4929620071
 20
-738.9901915809
 10
660.1087868778
 20
-737.4818433788
 10
661.7808493645
 20
-736.2255555438
 10
663.4717983544
 20
-735.2493914701
 10
665.1438608412
 20
-734.5751570502
 10
666.7596857119
 20
-734.2179135669
 10
668.283178109
 20
-734.1856412492
 10
669.6803057298
 20
-734.4790610073
 10
670.919859052
 20
-735.0916183289
 10
671.9741485026
 20
-736.0096296954
 10
672.8196229976
 20
-737.2125882499
 10
673.4373960337
 20
-738.6736218862
 10
673.8136675822
 20
-740.3600935271
 10
673.9400323585
 20
-742.234330183
  0
LWPOLYLINE
  5
1DA
330
1F
100
AcDbEntity
  8
0
  6
Continuous
 62
     7
370
    25
100
AcDbPolyline
 90
       43
 70
   128
 43
0.0
 10
573.4856313626
 20
-684.2243869646
 10
573.3592665864
 20
-686.2445212856
 10
572.9829950379
 20
-688.3654268092
 10
572.3652220017
 20
-690.5397260108
 10
571.5197475068
 20
-692.7188486389
 10
570.4654580562
 20
-694.8541166951
 10
569.225904734
 20
-696.8978318194
 10
567.8287771131
 20
-698.804340793
 10
566.305284716
 20
-700.5310553559
 10
564.6894598453
 20
-702.039403558
 10
563.0173973586
 20
-703.295691393
 10
561.3264483687
 20
-704.2718554666
 10
559.6543858819
 20
-704.9460898865
 10
558.0385610112
 20
-705.3033333699
 10
556.5150686141
 20
-705.3356056876
 10
555.1179409933
 20
-705.0421859294
 10
553.8783876711
 20
-704.4296286079
 10
552.8240982205
 20
-703.5116172414
 10
551.9786237255
 20
-702.3086586869
 10
551.3608506894
 20
-700.8476250505
 10
550.9845791409
 20
-699.1611534096
 10
550.8582143646
 20
-697.2869167537
 10
550.9845791409
 20
-695.2667824327
 10
551.3608506894
 20
-693.1458769091
 10
551.9786237255
 20
-690.9715777076
 10
552.8240982205
 20
-688.7924550794
 10
553.8783876711
 20
-686.6571870232
 10
555.1179409933
 20
-684.6134718989
 10
556.5150686141
 20
-682.7069629253
 10
558.0385610112
 20
-680.9802483625
 10
559.6543858819
 20
-679.4719001603
 10
561.3264483687
 20
-678.2156123253
 10
563.0173973586
 20
-677.2394482517
 10
564.6894598453
 20
-676.5652138318
 10
566.305284716
 20
-676.2079703485
 10
567.8287771131
 20
-676.1756980308
 10
569.225904734
 20
-676.4691177889
 10
570.4654580562
 20
-677.0816751104
 10
571.5197475068
 20
-677.9996864769
 10
572.3652220017
 20
-679.2026450315
 10
572.9829950379
 20
-680.6636786678
 10
573.3592665864
 20
-682.3501503087
 10
573.4856313626
 20
-684.2243869646
  0
LWPOLYLINE
  5
1DB
330
1F
100
AcDbEntity
  8
0
  6
Continuous
 62
     7
370
    25
100
AcDbPolyline
 90
       43
 70
   128
 43
0.0
 10
573.4856313626
 20
-520.1741506713
 10
573.3592665864
 20
-522.1942849923
 10
572.9829950379
 20
-524.315190516
 10
572.3652220018
 20
-526.4894897175
 10
571.5197475068
 20
-528.6686123456
 10
570.4654580562
 20
-530.8038804018
 10
569.225904734
 20
-532.8475955261
 10
567.8287771131
 20
-534.7541044997
 10
566.305284716
 20
-536.4808190626
 10
564.6894598453
 20
-537.9891672647
 10
563.0173973586
 20
-539.2454550997
 10
561.3264483687
 20
-540.2216191733
 10
559.6543858819
 20
-540.8958535932
 10
558.0385610112
 20
-541.2530970766
 10
556.5150686142
 20
-541.2853693943
 10
555.1179409933
 20
-540.9919496361
 10
553.8783876711
 20
-540.3793923146
 10
552.8240982205
 20
-539.4613809481
 10
551.9786237255
 20
-538.2584223936
 10
551.3608506894
 20
-536.7973887572
 10
550.9845791409
 20
-535.1109171163
 10
550.8582143647
 20
-533.2366804604
 10
550.9845791409
 20
-531.2165461394
 10
551.3608506894
 20
-529.0956406158
 10
551.9786237255
 20
-526.9213414143
 10
552.8240982205
 20
-524.7422187861
 10
553.8783876711
 20
-522.6069507299
 10
555.1179409933
 20
-520.5632356056
 10
556.5150686142
 20
-518.656726632
 10
558.0385610112
 20
-516.9300120692
 10
559.6543858819
 20
-515.421663867
 10
561.3264483687
 20
-514.165376032
 10
563.0173973586
 20
-513.1892119584
 10
564.6894598453
 20
-512.5149775385
 10
566.305284716
 20
-512.1577340552
 10
567.8287771131
 20
-512.1254617375
 10
569.225904734
 20
-512.4188814956
 10
570.4654580562
 20
-513.0314388171
 10
571.5197475068
 20
-513.9494501836
 10
572.3652220018
 20
-515.1524087382
 10
572.9829950379
 20
-516.6134423745
 10
573.3592665864
 20
-518.2999140154
 10
573.4856313626
 20
-520.1741506713
  0
LWPOLYLINE
  5
1DC
330
1F
100
AcDbEntity
  8
0
  6
Continuous
 62
     7
370
    25
100
AcDbPolyline
 90
       43
 70
   128
 43
0.0
 10
673.9400323585
 20
-346.1820248132
 10
673.8136675822
 20
-348.2021591343
 10
673.4373960337
 20
-350.3230646579
 10
672.8196229976
 20
-352.4973638594
 10
671.9741485027
 20
-354.6764864876
 10
670.919859052
 20
-356.8117545438
 10
669.6803057298
 20
-358.855469668
 10
668.283178109
 20
-360.7619786416
 10
666.7596857119
 20
-362.4886932045
 10
665.1438608412
 20
-363.9970414066
 10
663.4717983544
 20
-365.2533292417
 10
661.7808493646
 20
-366.2294933153
 10
660.1087868778
 20
-366.9037277352
 10
658.4929620071
 20
-367.2609712185
 10
656.96946961
 20
-367.2932435362
 10
655.5723419892
 20
-366.9998237781
 10
654.332788667
 20
-366.3872664566
 10
653.2784992163
 20
-365.4692550901
 10
652.4330247214
 20
-364.2662965355
 10
651.8152516853
 20
-362.8052628992
 10
651.4389801368
 20
-361.1187912583
 10
651.3126153605
 20
-359.2445546024
 10
651.4389801368
 20
-357.2244202814
 10
651.8152516853
 20
-355.1035147577
 10
652.4330247214
 20
-352.9292155562
 10
653.2784992163
 20
-350.750092928
 10
654.332788667
 20
-348.6148248719
 10
655.5723419892
 20
-346.5711097476
 10
656.96946961
 20
-344.664600774
 10
658.4929620071
 20
-342.9378862111
 10
660.1087868778
 20
-341.429538009
 10
661.7808493646
 20
-340.173250174
 10
663.4717983544
 20
-339.1970861003
 10
665.1438608412
 20
-338.5228516805
 10
666.7596857119
 20
-338.1656081971
 10
668.283178109
 20
-338.1333358794
 10
669.6803057298
 20
-338.4267556376
 10
670.919859052
 20
-339.0393129591
 10
671.9741485027
 20
-339.9573243256
 10
672.8196229976
 20
-341.1602828801
 10
673.4373960337
 20
-342.6213165164
 10
673.8136675822
 20
-344.3077881573
 10
673.9400323585
 20
-346.1820248132
  0
ARC
  5
1DD
330
1F
100
AcDbEntity
  8
0
  6
Continuous
 62
     7
370
    25
100
AcDbCircle
 10
804.6016993356
 20
-388.3989595892
 30
0.0
 40
74.40420306154202
100
AcDbArc
 50
36.6928703746
 51
85.8198026459
  0
ARC
  5
1DE
330
1F
100
AcDbEntity
  8
0
  6
Continuous
 62
     7
370
    25
100
AcDbCircle
 10
663.7959606406
 20
-632.3558595903
 30
0.0
 40
73.84840546802901
100
AcDbArc
 50
217.1729721042
 51
261.7181774388
  0
ARC
  5
1DF
330
1F
100
AcDbEntity
  8
0
  6
Continuous
 62
     7
370
    25
100
AcDbCircle
 10
699.4603408875
 20
-646.0670508376
 30
0.0
 40
80.04681250313467
100
AcDbArc
 50
216.639196189
 51
225.7073409792
  0
ARC
  5
1E0
330
1F
100
AcDbEntity
  8
0
  6
Continuous
 62
     7
370
    25
100
AcDbCircle
 10
834.565072308
 20
-412.1050741277
 30
0.0
 40
80.2191927802426
100
AcDbArc
 50
74.2930627463
 51
84.7911652104
  0
LWPOLYLINE
  5
1E1
330
1F
100
AcDbEntity
  8
0
  6
Continuous
 62
     7
370
    25
100
AcDbPolyline
 90
        3
 70
   128
 43
0.0
 10
873.5508590395
 20
-573.2275231321
 10
873.2577043573
 20
-573.0303593208
 10
873.1148092796
 20
-572.9446629961
  0
LINE
  5
1E2
330
1F
100
AcDbEntity
  8
0
  6
Continuous
 62
     7
370
    25
100
AcDbLine
 10
858.1160282901
 20
-598.9261288675
 30
0.0
 11
858.3470533401
 21
-599.051522992
 31
0.0
  0
LWPOLYLINE
  5
1E3
330
1F
100
AcDbEntity
  8
0
  6
Continuous
 62
     7
370
    25
100
AcDbPolyline
 90
        3
 70
   128
 43
0.0
 10
913.7872481796
 20
-480.4620126345
 10
913.4940934973
 20
-480.2648488232
 10
913.3511984197
 20
-480.1791524985
  0
LINE
  5
1E4
330
1F
100
AcDbEntity
  8
0
  6
Continuous
 62
     7
370
    25
100
AcDbLine
 10
898.3524174301
 20
-506.1606183699
 30
0.0
 11
898.5834424802
 21
-506.2860124944
 31
0.0
  0
LWPOLYLINE
  5
1E5
330
1F
100
AcDbEntity
  8
0
  6
Continuous
 62
     7
370
    25
100
AcDbPolyline
 90
        3
 70
   128
 43
0.0
 10
813.3328471837
 20
-654.4541384925
 10
813.0396925014
 20
-654.2569746813
 10
812.8967974238
 20
-654.1712783565
  0
LINE
  5
1E6
330
1F
100
AcDbEntity
  8
0
  6
Continuous
 62
     7
370
    25
100
AcDbLine
 10
797.8980164343
 20
-680.1527442279
 30
0.0
 11
798.1290414843
 21
-680.2781383524
 31
0.0
  0
LWPOLYLINE
  5
1E7
330
1F
100
AcDbEntity
  8
0
  6
Continuous
 62
     7
370
    25
100
AcDbPolyline
 90
        3
 70
   128
 43
0.0
 10
927.916389101
 20
-390.2803150515
 10
927.6232344187
 20
-390.0831512403
 10
927.4803393411
 20
-389.9974549155
  0
LINE
  5
1E8
330
1F
100
AcDbEntity
  8
0
  6
Continuous
 62
     7
370
    25
100
AcDbLine
 10
912.4815583516
 20
-415.978920787
 30
0.0
 11
912.7125834016
 21
-416.1043149115
 31
0.0
  0
LWPOLYLINE
  5
1E9
330
1F
100
AcDbEntity
  8
0
  6
Continuous
 62
     7
370
    25
100
AcDbPolyline
 90
        3
 70
   128
 43
0.0
 10
742.3008590395
 20
-711.7758428483
 10
742.0077043573
 20
-711.578679037
 10
741.8648092796
 20
-711.4929827123
  0
LINE
  5
1EA
330
1F
100
AcDbEntity
  8
0
  6
Continuous
 62
     7
370
    25
100
AcDbLine
 10
726.8660282901
 20
-737.4744485837
 30
0.0
 11
727.0970533401
 21
-737.5998427082
 31
0.0
  0
LWPOLYLINE
  5
1EB
330
1F
100
AcDbEntity
  8
0
  6
Continuous
 62
     7
370
    25
100
AcDbPolyline
 90
        3
 70
   128
 43
0.0
 10
913.7872481796
 20
-316.4117763412
 10
913.4940934973
 20
-316.2146125299
 10
913.3511984197
 20
-316.1289162052
  0
LINE
  5
1EC
330
1F
100
AcDbEntity
  8
0
  6
Continuous
 62
     7
370
    25
100
AcDbLine
 10
898.3524174301
 20
-342.1103820766
 30
0.0
 11
898.5834424802
 21
-342.2357762011
 31
0.0
  0
LWPOLYLINE
  5
1ED
330
1F
100
AcDbEntity
  8
0
  6
Continuous
 62
     7
370
    25
100
AcDbPolyline
 90
        3
 70
   128
 43
0.0
 10
671.2688708953
 20
-736.4659263338
 10
670.9757162131
 20
-736.2687625225
 10
670.8328211354
 20
-736.1830661978
  0
LINE
  5
1EE
330
1F
100
AcDbEntity
  8
0
  6
Continuous
 62
     7
370
    25
100
AcDbLine
 10
655.8340401459
 20
-762.1645320692
 30
0.0
 11
656.0650651959
 21
-762.2899261937
 31
0.0
  0
LWPOLYLINE
  5
1EF
330
1F
100
AcDbEntity
  8
0
  6
Continuous
 62
     7
370
    25
100
AcDbPolyline
 90
        3
 70
   128
 43
0.0
 10
873.5508590395
 20
-270.102211902
 10
873.2577043573
 20
-269.9050480908
 10
873.1148092797
 20
-269.819351766
  0
LINE
  5
1F0
330
1F
100
AcDbEntity
  8
0
  6
Continuous
 62
     7
370
    25
100
AcDbLine
 10
858.1160282901
 20
-295.8008176374
 30
0.0
 11
858.3470533402
 21
-295.926211762
 31
0.0
  0
LWPOLYLINE
  5
1F1
330
1F
100
AcDbEntity
  8
0
  6
Continuous
 62
     7
370
    25
100
AcDbPolyline
 90
        3
 70
   128
 43
0.0
 10
611.0508590395
 20
-724.7655475545
 10
610.7577043572
 20
-724.5683837432
 10
610.6148092796
 20
-724.4826874185
  0
LINE
  5
1F2
330
1F
100
AcDbEntity
  8
0
  6
Continuous
 62
     7
370
    25
100
AcDbLine
 10
595.6160282901
 20
-750.4641532899
 30
0.0
 11
595.8470533401
 21
-750.5895474144
 31
0.0
  0
LWPOLYLINE
  5
1F3
330
1F
100
AcDbEntity
  8
0
  6
Continuous
 62
     7
370
    25
100
AcDbPolyline
 90
        3
 70
   128
 43
0.0
 10
813.3328471837
 20
-258.4018331227
 10
813.0396925015
 20
-258.2046693115
 10
812.8967974238
 20
-258.1189729867
  0
LINE
  5
1F4
330
1F
100
AcDbEntity
  8
0
  6
Continuous
 62
     7
370
    25
100
AcDbLine
 10
797.8980164343
 20
-284.1004388581
 30
0.0
 11
798.1290414843
 21
-284.2258329827
 31
0.0
  0
LWPOLYLINE
  5
1F5
330
1F
100
AcDbEntity
  8
0
  6
Continuous
 62
     7
370
    25
100
AcDbPolyline
 90
        3
 70
   128
 43
0.0
 10
570.8144698995
 20
-678.4559831154
 10
570.5213152172
 20
-678.2588193041
 10
570.3784201396
 20
-678.1731229794
  0
LINE
  5
1F6
330
1F
100
AcDbEntity
  8
0
  6
Continuous
 62
     7
370
    25
100
AcDbLine
 10
555.3796391501
 20
-704.1545888508
 30
0.0
 11
555.6106642001
 21
-704.2799829753
 31
0.0
  0
LWPOLYLINE
  5
1F7
330
1F
100
AcDbEntity
  8
0
  6
Continuous
 62
     7
370
    25
100
AcDbPolyline
 90
        3
 70
   128
 43
0.0
 10
742.3008590395
 20
-283.0919166082
 10
742.0077043573
 20
-282.894752797
 10
741.8648092796
 20
-282.8090564722
  0
LINE
  5
1F8
330
1F
100
AcDbEntity
  8
0
  6
Continuous
 62
     7
370
    25
100
AcDbLine
 10
726.8660282901
 20
-308.7905223436
 30
0.0
 11
727.0970533402
 21
-308.9159164682
 31
0.0
  0
LWPOLYLINE
  5
1F9
330
1F
100
AcDbEntity
  8
0
  6
Continuous
 62
     7
370
    25
100
AcDbPolyline
 90
        3
 70
   128
 43
0.0
 10
556.685328978
 20
-604.587444405
 10
556.3921742958
 20
-604.3902805937
 10
556.2492792182
 20
-604.304584269
  0
LINE
  5
1FA
330
1F
100
AcDbEntity
  8
0
  6
Continuous
 62
     7
370
    25
100
AcDbLine
 10
541.2504982286
 20
-630.2860501404
 30
0.0
 11
541.4815232787
 21
-630.4114442649
 31
0.0
  0
LWPOLYLINE
  5
1FB
330
1F
100
AcDbEntity
  8
0
  6
Continuous
 62
     7
370
    25
100
AcDbPolyline
 90
        3
 70
   128
 43
0.0
 10
671.2688708953
 20
-340.413620964
 10
670.9757162131
 20
-340.2164571528
 10
670.8328211355
 20
-340.130760828
  0
LINE
  5
1FC
330
1F
100
AcDbEntity
  8
0
  6
Continuous
 62
     7
370
    25
100
AcDbLine
 10
655.8340401459
 20
-366.1122266994
 30
0.0
 11
656.065065196
 21
-366.2376208239
 31
0.0
  0
LWPOLYLINE
  5
1FD
330
1F
100
AcDbEntity
  8
0
  6
Continuous
 62
     7
370
    25
100
AcDbPolyline
 90
        3
 70
   128
 43
0.0
 10
570.8144698995
 20
-514.4057468221
 10
570.5213152172
 20
-514.2085830108
 10
570.3784201396
 20
-514.1228866861
  0
LINE
  5
1FE
330
1F
100
AcDbEntity
  8
0
  6
Continuous
 62
     7
370
    25
100
AcDbLine
 10
555.3796391501
 20
-540.1043525575
 30
0.0
 11
555.6106642001
 21
-540.229746682
 31
0.0
  0
LWPOLYLINE
  5
1FF
330
1F
100
AcDbEntity
  8
0
  6
Continuous
 62
     7
370
    25
100
AcDbPolyline
 90
        3
 70
   128
 43
0.0
 10
611.0508590395
 20
-421.6402363245
 10
610.7577043573
 20
-421.4430725132
 10
610.6148092796
 20
-421.3573761885
  0
LINE
  5
200
330
1F
100
AcDbEntity
  8
0
  6
Continuous
 62
     7
370
    25
100
AcDbLine
 10
595.6160282901
 20
-447.3388420599
 30
0.0
 11
595.8470533401
 21
-447.4642361844
 31
0.0
  0
LWPOLYLINE
  5
201
330
1F
100
AcDbEntity
  8
0
  6
Continuous
 62
     1
370
    25
100
AcDbPolyline
 90
       62
 70
   128
 43
0.0
 10
943.6690260161
 20
-389.3133519782
 10
943.544310484
 20
-397.727764219
 10
943.1703125137
 20
-406.2761423342
 10
942.5474778055
 20
-414.9482990598
 10
941.6765486035
 20
-423.7338996228
 10
940.5585628102
 20
-432.6224740571
 10
939.1948527507
 20
-441.6034296806
 10
937.5870435838
 20
-450.6660637185
 10
935.7370513662
 20
-459.7995760588
 10
933.6470807686
 20
-468.9930821221
 10
931.3196224483
 20
-478.2356258336
 10
928.7574500816
 20
-487.5161926793
 10
925.9636170576
 20
-496.8237228321
 10
922.9414528399
 20
-506.1471243327
 10
919.6945589987
 20
-515.4752863071
 10
916.2268049188
 20
-524.7970922086
 10
912.5423231883
 20
-534.1014330648
 10
908.6455046736
 20
-543.3772207169
 10
904.5409932871
 20
-552.6134010335
 10
900.2336804524
 20
-561.798967084
 10
895.7286992758
 20
-570.9229722556
 10
891.0314184284
 20
-579.9745432991
 10
886.1474357486
 20
-588.9428932861
 10
881.0825715708
 20
-597.8173344645
 10
875.8428617894
 20
-606.5872909951
 10
870.4345506655
 20
-615.2423115548
 10
864.8640833858
 20
-623.7720817921
 10
859.1380983813
 20
-632.1664366187
 10
853.2634194166
 20
-640.4153723233
 10
847.2470474576
 20
-648.5090584933
 10
841.0961523285
 20
-656.4378497299
 10
834.8180641673
 20
-664.1922971428
 10
828.4202646902
 20
-671.7631596104
 10
821.9103782759
 20
-679.1414147929
 10
815.2961628789
 20
-686.3182698842
 10
808.5855007847
 20
-693.2851720904
 10
801.7863892162
 20
-700.0338188224
 10
794.9069308032
 20
-706.5561675905
 10
787.9553239261
 20
-712.8444455884
 10
780.9398529464
 20
-718.8911589563
 10
773.8688783333
 20
-724.6891017116
 10
766.750826701
 20
-730.2313643365
 10
759.594180766
 20
-735.5113420117
 10
752.4074692386
 20
-740.5227424881
 10
745.1992566587
 20
-745.2595935851
 10
737.9781331895
 20
-749.7162503077
 10
730.7527043803
 20
-753.8874015738
 10
723.531580911
 20
-757.7680765437
 10
716.3233683312
 20
-761.3536505436
 10
709.1366568038
 20
-764.6398505773
 10
701.9800108688
 20
-767.6227604181
 10
694.8619592364
 20
-770.298825276
 10
687.7909846234
 20
-772.6648560339
 10
680.7755136436
 20
-774.7180330481
 10
673.8239067666
 20
-776.455909509
 10
666.9444483535
 20
-777.8764143562
 10
660.1453367851
 20
-778.9778547473
 10
653.4346746909
 20
-779.758918075
 10
646.8204592939
 20
-780.2186735313
 10
640.3105728795
 20
-780.3565732169
 10
633.9127734024
 20
-780.1724527943
 10
629.3735738692
 20
-779.8400019181
  0
LWPOLYLINE
  5
202
330
1F
100
AcDbEntity
  8
0
  6
Continuous
 62
     1
370
    25
100
AcDbPolyline
 90
       17
 70
   128
 43
0.0
 10
916.2204489763
 20
-285.5045127381
 10
916.2268049188
 20
-285.5137258114
 10
919.6945589987
 20
-290.8317480751
 10
922.9414528399
 20
-296.4111262157
 10
925.9636170576
 20
-302.2452111826
 10
928.7574500816
 20
-308.3270503867
 10
931.3196224483
 20
-314.6493959852
 10
933.6470807686
 20
-321.2047135194
 10
935.7370513662
 20
-327.9851908935
 10
937.5870435838
 20
-334.9827476844
 10
939.1948527507
 20
-342.1890447716
 10
940.5585628102
 20
-349.5954942745
 10
941.6765486035
 20
-357.1932697874
 10
942.5474778055
 20
-364.9733168975
 10
943.1703125137
 20
-372.9263639758
 10
943.544310484
 20
-381.0429332257
 10
943.6690260161
 20
-389.3133519782
  0
LWPOLYLINE
  5
203
330
1F
100
AcDbEntity
  8
0
  6
Continuous
 62
     1
370
    25
100
AcDbPolyline
 90
       17
 70
   128
 43
0.0
 10
974.7817243883
 20
-407.2743304383
 10
974.6570088562
 20
-399.0039116858
 10
974.2830108859
 20
-390.8873424359
 10
973.6601761777
 20
-382.9342953576
 10
972.7892469757
 20
-375.1542482475
 10
971.6712611824
 20
-367.5564727346
 10
970.3075511229
 20
-360.1500232317
 10
968.699741956
 20
-352.9437261445
 10
966.8497497384
 20
-345.9461693536
 10
964.7597791408
 20
-339.1656919795
 10
962.4323208205
 20
-332.6103744453
 10
959.8701484538
 20
-326.2880288468
 10
957.0763154298
 20
-320.2061896427
 10
954.0541512121
 20
-314.3721046758
 10
950.8072573709
 20
-308.7927265352
 10
947.339503291
 20
-303.4747042715
 10
946.7581413347
 20
-302.6395357557
  0
LWPOLYLINE
  5
204
330
1F
100
AcDbEntity
  8
0
  6
Continuous
 62
     1
370
    25
100
AcDbPolyline
 90
       62
 70
   128
 43
0.0
 10
661.2747767584
 20
-797.8711232226
 10
665.0254717747
 20
-798.1334312544
 10
671.4232712517
 20
-798.317551677
 10
677.9331576661
 20
-798.1796519914
 10
684.5473730631
 20
-797.7198965351
 10
691.2580351573
 20
-796.9388332074
 10
698.0571467258
 20
-795.8373928163
 10
704.9366051388
 20
-794.4168879691
 10
711.8882120158
 20
-792.6790115082
 10
718.9036829956
 20
-790.625834494
 10
725.9746576086
 20
-788.2598037361
 10
733.092709241
 20
-785.5837388782
 10
740.249355176
 20
-782.6008290374
 10
747.4360667034
 20
-779.3146290037
 10
754.6442792833
 20
-775.7290550038
 10
761.8654027525
 20
-771.8483800339
 10
769.0908315617
 20
-767.6772287678
 10
776.3119550309
 20
-763.2205720452
 10
783.5201676108
 20
-758.4837209482
 10
790.7068791382
 20
-753.4723204718
 10
797.8635250732
 20
-748.1923427966
 10
804.9815767055
 20
-742.6500801717
 10
812.0525513186
 20
-736.8521374164
 10
819.0680222983
 20
-730.8054240485
 10
826.0196291754
 20
-724.5171460506
 10
832.8990875884
 20
-717.9947972825
 10
839.6981991569
 20
-711.2461505505
 10
846.4088612511
 20
-704.2792483443
 10
853.0230766481
 20
-697.102393253
 10
859.5329630625
 20
-689.7241380705
 10
865.9307625395
 20
-682.1532756029
 10
872.2088507008
 20
-674.39882819
 10
878.3597458298
 20
-666.4700369534
 10
884.3761177888
 20
-658.3763507834
 10
890.2507967535
 20
-650.1274150788
 10
895.976781758
 20
-641.7330602522
 10
901.5472490377
 20
-633.2032900149
 10
906.9555601616
 20
-624.5482694552
 10
912.195269943
 20
-615.7783129246
 10
917.2601341208
 20
-606.9038717462
 10
922.1441168006
 20
-597.9355217592
 10
926.841397648
 20
-588.8839507157
 10
931.3463788247
 20
-579.7599455441
 10
935.6536916593
 20
-570.5743794936
 10
939.7582030458
 20
-561.338199177
 10
943.6550215605
 20
-552.0624115249
 10
947.339503291
 20
-542.7580706687
 10
950.8072573709
 20
-533.4362647672
 10
954.0541512121
 20
-524.1081027928
 10
957.0763154298
 20
-514.7847012922
 10
959.8701484538
 20
-505.4771711394
 10
962.4323208205
 20
-496.1966042937
 10
964.7597791408
 20
-486.9540605822
 10
966.8497497384
 20
-477.7605545189
 10
968.699741956
 20
-468.6270421786
 10
970.3075511229
 20
-459.5644081406
 10
971.6712611824
 20
-450.5834525172
 10
972.7892469757
 20
-441.6948780829
 10
973.6601761777
 20
-432.9092775199
 10
974.2830108859
 20
-424.2371207943
 10
974.6570088562
 20
-415.6887426791
 10
974.7817243883
 20
-407.2743304383
  0
LWPOLYLINE
  5
205
330
1F
100
AcDbEntity
  8
0
  6
Continuous
 62
     1
370
    25
100
AcDbPolyline
 90
       68
 70
   128
 43
0.0
 10
810.0252820788
 20
-314.1926917714
 10
809.4881593384
 20
-314.148559264
 10
804.0701551046
 20
-313.8861362766
 10
798.5376261721
 20
-313.9461607514
 10
792.8996624714
 20
-314.3285340683
 10
787.165527162
 20
-315.0326279889
 10
781.3446414131
 20
-316.0572856889
 10
775.4465689249
 20
-317.4008236582
 10
769.4810002148
 20
-319.0610344676
 10
763.4577366967
 20
-321.0351903951
 10
757.3866745766
 20
-323.3200479075
 10
751.2777885937
 20
-325.9118529901
 10
745.1411156316
 20
-328.8063473139
 10
738.9867382279
 20
-331.9987752323
 10
732.8247680084
 20
-335.4838915947
 10
726.6653290742
 20
-339.2559703639
 10
720.5185413671
 20
-343.3088140245
 10
714.3945040433
 20
-347.6357637651
 10
708.30327888
 20
-352.2297104184
 10
702.254873744
 20
-357.0831061423
 10
696.2592261493
 20
-362.1879768203
 10
690.326186929
 20
-367.5359351633
 10
684.465504051
 20
-373.1181944898
 10
678.6868066019
 20
-378.9255831623
 10
672.9995889664
 20
-384.9485596566
 10
667.4131952282
 20
-391.177228238
 10
661.9368038175
 20
-397.6013552205
 10
656.5794124309
 20
-404.2103857802
 10
651.3498232486
 20
-410.9934612973
 10
646.2566284718
 20
-417.9394371966
 10
641.3081962061
 20
-425.0369012579
 10
636.5126567127
 20
-432.2741923663
 10
631.8778890505
 20
-439.6394196717
 10
627.4115081305
 20
-447.1204821247
 10
623.1208522049
 20
-454.7050883596
 10
619.01297081
 20
-462.3807768882
 10
615.0946131843
 20
-470.1349365743
 10
611.3722171791
 20
-477.9548273539
 10
607.8518986811
 20
-485.8276011672
 10
604.5394415644
 20
-493.7403230672
 10
601.4402881875
 20
-501.6799924728
 10
598.559530451
 20
-509.6335645279
 10
595.9019014325
 20
-517.5879715346
 10
593.4717676095
 20
-525.5301444231
 10
591.2731216853
 20
-533.447034224
 10
589.3095760296
 20
-541.3256335083
 10
587.5843567426
 20
-549.1529977581
 10
586.1002983551
 20
-556.9162666343
 10
584.8598391712
 20
-564.6026851067
 10
583.8650172621
 20
-572.1996244099
 10
583.1174671174
 20
-579.6946027925
 10
582.6184169602
 20
-587.0753060248
 10
582.3686867286
 20
-594.3296076307
 10
582.3686867286
 20
-601.4455888117
 10
582.6184169602
 20
-608.4115580295
 10
583.1174671174
 20
-615.2160702148
 10
583.8650172621
 20
-621.8479455721
 10
584.8598391712
 20
-628.2962879475
 10
586.1002983551
 20
-634.5505027315
 10
587.5843567426
 20
-640.6003142656
 10
589.3095760296
 20
-646.4357827253
 10
591.2731216853
 20
-652.0473204512
 10
593.4717676095
 20
-657.4257077017
 10
595.9019014325
 20
-662.5621078006
 10
598.559530451
 20
-667.4480816559
 10
601.4402881875
 20
-672.0756016256
 10
604.5394415644
 20
-676.4370647064
 10
604.9524408991
 20
-676.9767871311
  0
LWPOLYLINE
  5
206
330
1F
100
AcDbEntity
  8
0
  6
Continuous
 62
     1
370
    25
100
AcDbPolyline
 90
       67
 70
   128
 43
0.0
 10
635.230025422
 20
-693.836902911
 10
632.5529865597
 20
-690.0365800857
 10
629.6722288232
 20
-685.409060116
 10
627.0145998047
 20
-680.5230862607
 10
624.5844659817
 20
-675.3866861618
 10
622.3858200575
 20
-670.0082989113
 10
620.4222744018
 20
-664.3967611854
 10
618.6970551148
 20
-658.5612927257
 10
617.2129967274
 20
-652.5114811916
 10
615.9725375434
 20
-646.2572664076
 10
614.9777156343
 20
-639.8089240322
 10
614.2301654896
 20
-633.1770486749
 10
613.7311153324
 20
-626.3725364896
 10
613.4813851008
 20
-619.4065672718
 10
613.4813851008
 20
-612.2905860908
 10
613.7311153324
 20
-605.0362844849
 10
614.2301654896
 20
-597.6555812526
 10
614.9777156343
 20
-590.16060287
 10
615.9725375434
 20
-582.5636635668
 10
617.2129967274
 20
-574.8772450944
 10
618.6970551148
 20
-567.1139762181
 10
620.4222744018
 20
-559.2866119684
 10
622.3858200575
 20
-551.4080126841
 10
624.5844659817
 20
-543.4911228832
 10
627.0145998047
 20
-535.5489499947
 10
629.6722288232
 20
-527.594542988
 10
632.5529865597
 20
-519.6409709329
 10
635.6521399366
 20
-511.7013015273
 10
638.9645970533
 20
-503.7885796273
 10
642.4849155513
 20
-495.915805814
 10
646.2073115566
 20
-488.0959150344
 10
650.1256691823
 20
-480.3417553483
 10
654.2335505771
 20
-472.6660668197
 10
658.5242065027
 20
-465.0814605848
 10
662.9905874227
 20
-457.6003981318
 10
667.6253550849
 20
-450.2351708264
 10
672.4208945783
 20
-442.997879718
 10
677.369326844
 20
-435.9004156567
 10
682.4625216208
 20
-428.9544397574
 10
687.6921108032
 20
-422.1713642403
 10
693.0495021897
 20
-415.5623336806
 10
698.5258936004
 20
-409.1382066981
 10
704.1122873386
 20
-402.9095381167
 10
709.7995049741
 20
-396.8865616224
 10
715.5782024232
 20
-391.0791729499
 10
721.4388853012
 20
-385.4969136234
 10
727.3719245215
 20
-380.1489552804
 10
733.3675721162
 20
-375.0440846024
 10
739.4159772522
 20
-370.1906888785
 10
745.5072024155
 20
-365.5967422252
 10
751.6312397393
 20
-361.2697924846
 10
757.7780274464
 20
-357.216948824
 10
763.9374663807
 20
-353.4448700548
 10
770.0994366001
 20
-349.9597536924
 10
776.2538140038
 20
-346.767325774
 10
782.3904869659
 20
-343.8728314502
 10
788.4993729488
 20
-341.2810263676
 10
794.5704350689
 20
-338.9961688552
 10
800.593698587
 20
-337.0220129277
 10
806.5592672971
 20
-335.3618021183
 10
812.4573397853
 20
-334.018264149
 10
818.2782255342
 20
-332.993606449
 10
824.0123608436
 20
-332.2895125284
 10
829.6503245443
 20
-331.9071392115
 10
835.1828534768
 20
-331.8471147367
 10
840.6008577106
 20
-332.1095377241
 10
841.8478632287
 20
-332.217153597
  0
LWPOLYLINE
  5
207
330
1F
100
AcDbEntity
  8
0
  6
Continuous
 62
     1
370
    25
100
AcDbPolyline
 90
       22
 70
   128
 43
0.0
 10
873.1148092796
 20
-572.9446629961
 10
872.0454102702
 20
-572.4826045565
 10
870.6824026325
 20
-572.25017182
 10
869.200629188
 20
-572.3385091376
 10
867.6348214504
 20
-572.7455459575
 10
866.0216806258
 20
-573.4617416816
 10
864.399017368
 20
-574.4703092891
 10
862.8048655285
 20
-575.7476088102
 10
861.2765906752
 20
-577.2637014267
 10
859.8500142753
 20
-578.9830512125
 10
858.5585740706
 20
-580.865358066
 10
857.4325403249
 20
-582.86650231
 10
856.4983063148
 20
-584.9395788193
 10
855.7777696937
 20
-587.0359964378
 10
855.2878192294
 20
-589.1066169132
 10
855.0399389453
 20
-591.1029066567
 10
855.0399389453
 20
-592.9780743285
 10
855.2878192294
 20
-594.6881675878
 10
855.7777696937
 20
-596.1931032979
 10
856.4983063148
 20
-597.4576070415
 10
857.4325403249
 20
-598.4520399224
 10
858.1160282901
 20
-598.9261288675
  0
LWPOLYLINE
  5
208
330
1F
100
AcDbEntity
  8
0
  6
Continuous
 62
     1
370
    25
100
AcDbPolyline
 90
       22
 70
   128
 43
0.0
 10
913.3511984197
 20
-480.1791524985
 10
912.2817994102
 20
-479.7170940589
 10
910.9187917726
 20
-479.4846613224
 10
909.4370183281
 20
-479.57299864
 10
907.8712105904
 20
-479.9800354599
 10
906.2580697659
 20
-480.696231184
 10
904.6354065081
 20
-481.7047987915
 10
903.0412546685
 20
-482.9820983126
 10
901.5129798152
 20
-484.4981909291
 10
900.0864034153
 20
-486.2175407149
 10
898.7949632106
 20
-488.0998475684
 10
897.6689294649
 20
-490.1009918124
 10
896.7346954549
 20
-492.1740683218
 10
896.0141588338
 20
-494.2704859402
 10
895.5242083694
 20
-496.3411064156
 10
895.2763280853
 20
-498.3373961591
 10
895.2763280853
 20
-500.2125638309
 10
895.5242083694
 20
-501.9226570902
 10
896.0141588338
 20
-503.4275928003
 10
896.7346954549
 20
-504.6920965439
 10
897.6689294649
 20
-505.6865294248
 10
898.3524174301
 20
-506.1606183699
  0
LWPOLYLINE
  5
209
330
1F
100
AcDbEntity
  8
0
  6
Continuous
 62
     1
370
    25
100
AcDbPolyline
 90
       22
 70
   128
 43
0.0
 10
812.8967974238
 20
-654.1712783565
 10
811.8273984144
 20
-653.709219917
 10
810.4643907767
 20
-653.4767871805
 10
808.9826173322
 20
-653.5651244981
 10
807.4168095946
 20
-653.972161318
 10
805.80366877
 20
-654.6883570421
 10
804.1810055122
 20
-655.6969246496
 10
802.5868536727
 20
-656.9742241707
 10
801.0585788193
 20
-658.4903167871
 10
799.6320024195
 20
-660.209666573
 10
798.3405622148
 20
-662.0919734265
 10
797.2145284691
 20
-664.0931176704
 10
796.280294459
 20
-666.1661941798
 10
795.5597578379
 20
-668.2626117983
 10
795.0698073735
 20
-670.3332322737
 10
794.8219270895
 20
-672.3295220171
 10
794.8219270895
 20
-674.2046896889
 10
795.0698073735
 20
-675.9147829482
 10
795.5597578379
 20
-677.4197186584
 10
796.280294459
 20
-678.6842224019
 10
797.2145284691
 20
-679.6786552828
 10
797.8980164343
 20
-680.1527442279
  0
LWPOLYLINE
  5
20A
330
1F
100
AcDbEntity
  8
0
  6
Continuous
 62
     1
370
    25
100
AcDbPolyline
 90
       22
 70
   128
 43
0.0
 10
927.4803393411
 20
-389.9974549155
 10
926.4109403317
 20
-389.535396476
 10
925.047932694
 20
-389.3029637395
 10
923.5661592495
 20
-389.3913010571
 10
922.0003515119
 20
-389.798337877
 10
920.3872106873
 20
-390.5145336011
 10
918.7645474295
 20
-391.5231012086
 10
917.17039559
 20
-392.8004007297
 10
915.6421207366
 20
-394.3164933461
 10
914.2155443368
 20
-396.035843132
 10
912.9241041321
 20
-397.9181499855
 10
911.7980703864
 20
-399.9192942295
 10
910.8638363763
 20
-401.9923707388
 10
910.1432997552
 20
-404.0887883573
 10
909.6533492908
 20
-406.1594088327
 10
909.4054690068
 20
-408.1556985761
 10
909.4054690068
 20
-410.030866248
 10
909.6533492908
 20
-411.7409595072
 10
910.1432997552
 20
-413.2458952174
 10
910.8638363763
 20
-414.510398961
 10
911.7980703864
 20
-415.5048318419
 10
912.4815583516
 20
-415.978920787
  0
LWPOLYLINE
  5
20B
330
1F
100
AcDbEntity
  8
0
  6
Continuous
 62
     1
370
    25
100
AcDbPolyline
 90
       22
 70
   128
 43
0.0
 10
741.8648092796
 20
-711.4929827123
 10
740.7954102702
 20
-711.0309242728
 10
739.4324026325
 20
-710.7984915363
 10
737.950629188
 20
-710.8868288539
 10
736.3848214504
 20
-711.2938656738
 10
734.7716806258
 20
-712.0100613979
 10
733.149017368
 20
-713.0186290054
 10
731.5548655285
 20
-714.2959285265
 10
730.0265906751
 20
-715.8120211429
 10
728.6000142753
 20
-717.5313709288
 10
727.3085740706
 20
-719.4136777823
 10
726.1825403249
 20
-721.4148220262
 10
725.2483063148
 20
-723.4878985356
 10
724.5277696937
 20
-725.5843161541
 10
724.0378192293
 20
-727.6549366295
 10
723.7899389453
 20
-729.6512263729
 10
723.7899389453
 20
-731.5263940447
 10
724.0378192293
 20
-733.236487304
 10
724.5277696937
 20
-734.7414230142
 10
725.2483063148
 20
-736.0059267577
 10
726.1825403249
 20
-737.0003596386
 10
726.8660282901
 20
-737.4744485837
  0
LWPOLYLINE
  5
20C
330
1F
100
AcDbEntity
  8
0
  6
Continuous
 62
     1
370
    25
100
AcDbPolyline
 90
       22
 70
   128
 43
0.0
 10
913.3511984197
 20
-316.1289162052
 10
912.2817994102
 20
-315.6668577656
 10
910.9187917726
 20
-315.4344250291
 10
909.4370183281
 20
-315.5227623467
 10
907.8712105904
 20
-315.9297991666
 10
906.2580697659
 20
-316.6459948907
 10
904.6354065081
 20
-317.6545624983
 10
903.0412546685
 20
-318.9318620193
 10
901.5129798152
 20
-320.4479546358
 10
900.0864034153
 20
-322.1673044216
 10
898.7949632106
 20
-324.0496112752
 10
897.6689294649
 20
-326.0507555191
 10
896.7346954549
 20
-328.1238320285
 10
896.0141588338
 20
-330.2202496469
 10
895.5242083694
 20
-332.2908701223
 10
895.2763280853
 20
-334.2871598658
 10
895.2763280853
 20
-336.1623275376
 10
895.5242083694
 20
-337.8724207969
 10
896.0141588338
 20
-339.377356507
 10
896.7346954549
 20
-340.6418602506
 10
897.6689294649
 20
-341.6362931315
 10
898.3524174301
 20
-342.1103820766
  0
LWPOLYLINE
  5
20D
330
1F
100
AcDbEntity
  8
0
  6
Continuous
 62
     1
370
    25
100
AcDbPolyline
 90
       22
 70
   128
 43
0.0
 10
670.8328211354
 20
-736.1830661978
 10
669.763422126
 20
-735.7210077583
 10
668.4004144883
 20
-735.4885750218
 10
666.9186410438
 20
-735.5769123394
 10
665.3528333062
 20
-735.9839491593
 10
663.7396924816
 20
-736.7001448834
 10
662.1170292238
 20
-737.7087124909
 10
660.5228773843
 20
-738.986012012
 10
658.9946025309
 20
-740.5021046284
 10
657.5680261311
 20
-742.2214544143
 10
656.2765859264
 20
-744.1037612678
 10
655.1505521807
 20
-746.1049055117
 10
654.2163181706
 20
-748.1779820211
 10
653.4957815495
 20
-750.2743996396
 10
653.0058310851
 20
-752.345020115
 10
652.7579508011
 20
-754.3413098584
 10
652.7579508011
 20
-756.2164775302
 10
653.0058310851
 20
-757.9265707895
 10
653.4957815495
 20
-759.4315064997
 10
654.2163181706
 20
-760.6960102432
 10
655.1505521807
 20
-761.6904431241
 10
655.8340401459
 20
-762.1645320692
  0
LWPOLYLINE
  5
20E
330
1F
100
AcDbEntity
  8
0
  6
Continuous
 62
     1
370
    25
100
AcDbPolyline
 90
       22
 70
   128
 43
0.0
 10
873.1148092797
 20
-269.819351766
 10
872.0454102702
 20
-269.3572933265
 10
870.6824026325
 20
-269.12486059
 10
869.2006291881
 20
-269.2131979076
 10
867.6348214504
 20
-269.6202347275
 10
866.0216806258
 20
-270.3364304516
 10
864.3990173681
 20
-271.3449980591
 10
862.8048655285
 20
-272.6222975802
 10
861.2765906752
 20
-274.1383901966
 10
859.8500142753
 20
-275.8577399825
 10
858.5585740706
 20
-277.740046836
 10
857.4325403249
 20
-279.74119108
 10
856.4983063148
 20
-281.8142675893
 10
855.7777696938
 20
-283.9106852078
 10
855.2878192294
 20
-285.9813056832
 10
855.0399389453
 20
-287.9775954266
 10
855.0399389453
 20
-289.8527630984
 10
855.2878192294
 20
-291.5628563577
 10
855.7777696938
 20
-293.0677920679
 10
856.4983063148
 20
-294.3322958115
 10
857.4325403249
 20
-295.3267286924
 10
858.1160282901
 20
-295.8008176374
  0
LWPOLYLINE
  5
20F
330
1F
100
AcDbEntity
  8
0
  6
Continuous
 62
     1
370
    25
100
AcDbPolyline
 90
       22
 70
   128
 43
0.0
 10
610.6148092796
 20
-724.4826874185
 10
609.5454102702
 20
-724.020628979
 10
608.1824026325
 20
-723.7881962425
 10
606.700629188
 20
-723.8765335601
 10
605.1348214504
 20
-724.28357038
 10
603.5216806258
 20
-724.9997661041
 10
601.899017368
 20
-726.0083337116
 10
600.3048655285
 20
-727.2856332327
 10
598.7765906751
 20
-728.8017258491
 10
597.3500142753
 20
-730.521075635
 10
596.0585740706
 20
-732.4033824885
 10
594.9325403249
 20
-734.4045267324
 10
593.9983063148
 20
-736.4776032418
 10
593.2777696937
 20
-738.5740208603
 10
592.7878192293
 20
-740.6446413357
 10
592.5399389453
 20
-742.6409310791
 10
592.5399389453
 20
-744.5160987509
 10
592.7878192293
 20
-746.2261920102
 10
593.2777696937
 20
-747.7311277204
 10
593.9983063148
 20
-748.9956314639
 10
594.9325403249
 20
-749.9900643448
 10
595.6160282901
 20
-750.4641532899
  0
LWPOLYLINE
  5
210
330
1F
100
AcDbEntity
  8
0
  6
Continuous
 62
     1
370
    25
100
AcDbPolyline
 90
       22
 70
   128
 43
0.0
 10
812.8967974238
 20
-258.1189729867
 10
811.8273984144
 20
-257.6569145472
 10
810.4643907767
 20
-257.4244818107
 10
808.9826173322
 20
-257.5128191283
 10
807.4168095946
 20
-257.9198559482
 10
805.80366877
 20
-258.6360516723
 10
804.1810055122
 20
-259.6446192798
 10
802.5868536727
 20
-260.9219188009
 10
801.0585788194
 20
-262.4380114173
 10
799.6320024195
 20
-264.1573612032
 10
798.3405622148
 20
-266.0396680567
 10
797.2145284691
 20
-268.0408123007
 10
796.280294459
 20
-270.11388881
 10
795.559757838
 20
-272.2103064285
 10
795.0698073736
 20
-274.2809269039
 10
794.8219270895
 20
-276.2772166473
 10
794.8219270895
 20
-278.1523843191
 10
795.0698073736
 20
-279.8624775784
 10
795.559757838
 20
-281.3674132886
 10
796.280294459
 20
-282.6319170322
 10
797.2145284691
 20
-283.6263499131
 10
797.8980164343
 20
-284.1004388581
  0
LWPOLYLINE
  5
211
330
1F
100
AcDbEntity
  8
0
  6
Continuous
 62
     1
370
    25
100
AcDbPolyline
 90
       22
 70
   128
 43
0.0
 10
570.3784201396
 20
-678.1731229794
 10
569.3090211302
 20
-677.7110645398
 10
567.9460134925
 20
-677.4786318033
 10
566.464240048
 20
-677.5669691209
 10
564.8984323103
 20
-677.9740059408
 10
563.2852914858
 20
-678.6902016649
 10
561.662628228
 20
-679.6987692725
 10
560.0684763884
 20
-680.9760687935
 10
558.5402015351
 20
-682.49216141
 10
557.1136251352
 20
-684.2115111958
 10
555.8221849305
 20
-686.0938180494
 10
554.6961511849
 20
-688.0949622933
 10
553.7619171748
 20
-690.1680388027
 10
553.0413805537
 20
-692.2644564211
 10
552.5514300893
 20
-694.3350768965
 10
552.3035498052
 20
-696.33136664
 10
552.3035498052
 20
-698.2065343118
 10
552.5514300893
 20
-699.9166275711
 10
553.0413805537
 20
-701.4215632812
 10
553.7619171748
 20
-702.6860670248
 10
554.6961511849
 20
-703.6804999057
 10
555.3796391501
 20
-704.1545888508
  0
LWPOLYLINE
  5
212
330
1F
100
AcDbEntity
  8
0
  6
Continuous
 62
     1
370
    25
100
AcDbPolyline
 90
       22
 70
   128
 43
0.0
 10
741.8648092796
 20
-282.8090564722
 10
740.7954102702
 20
-282.3469980327
 10
739.4324026325
 20
-282.1145652962
 10
737.9506291881
 20
-282.2029026138
 10
736.3848214504
 20
-282.6099394337
 10
734.7716806258
 20
-283.3261351578
 10
733.149017368
 20
-284.3347027653
 10
731.5548655285
 20
-285.6120022864
 10
730.0265906752
 20
-287.1280949028
 10
728.6000142753
 20
-288.8474446887
 10
727.3085740706
 20
-290.7297515422
 10
726.1825403249
 20
-292.7308957862
 10
725.2483063148
 20
-294.8039722955
 10
724.5277696938
 20
-296.900389914
 10
724.0378192294
 20
-298.9710103894
 10
723.7899389453
 20
-300.9673001328
 10
723.7899389453
 20
-302.8424678046
 10
724.0378192294
 20
-304.5525610639
 10
724.5277696938
 20
-306.0574967741
 10
725.2483063148
 20
-307.3220005177
 10
726.1825403249
 20
-308.3164333986
 10
726.8660282901
 20
-308.7905223436
  0
LWPOLYLINE
  5
213
330
1F
100
AcDbEntity
  8
0
  6
Continuous
 62
     1
370
    25
100
AcDbPolyline
 90
       22
 70
   128
 43
0.0
 10
556.2492792182
 20
-604.304584269
 10
555.1798802087
 20
-603.8425258295
 10
553.816872571
 20
-603.610093093
 10
552.3350991266
 20
-603.6984304106
 10
550.7692913889
 20
-604.1054672305
 10
549.1561505643
 20
-604.8216629545
 10
547.5334873065
 20
-605.8302305621
 10
545.939335467
 20
-607.1075300832
 10
544.4110606137
 20
-608.6236226996
 10
542.9844842138
 20
-610.3429724854
 10
541.6930440091
 20
-612.225279339
 10
540.5670102634
 20
-614.2264235829
 10
539.6327762533
 20
-616.2995000923
 10
538.9122396323
 20
-618.3959177107
 10
538.4222891679
 20
-620.4665381862
 10
538.1744088838
 20
-622.4628279296
 10
538.1744088838
 20
-624.3379956014
 10
538.4222891679
 20
-626.0480888607
 10
538.9122396323
 20
-627.5530245709
 10
539.6327762533
 20
-628.8175283144
 10
540.5670102634
 20
-629.8119611953
 10
541.2504982286
 20
-630.2860501404
  0
LWPOLYLINE
  5
214
330
1F
100
AcDbEntity
  8
0
  6
Continuous
 62
     1
370
    25
100
AcDbPolyline
 90
       22
 70
   128
 43
0.0
 10
670.8328211355
 20
-340.130760828
 10
669.763422126
 20
-339.6687023885
 10
668.4004144883
 20
-339.436269652
 10
666.9186410439
 20
-339.5246069696
 10
665.3528333062
 20
-339.9316437895
 10
663.7396924816
 20
-340.6478395136
 10
662.1170292238
 20
-341.6564071211
 10
660.5228773843
 20
-342.9337066422
 10
658.994602531
 20
-344.4497992586
 10
657.5680261311
 20
-346.1691490445
 10
656.2765859264
 20
-348.051455898
 10
655.1505521807
 20
-350.0526001419
 10
654.2163181706
 20
-352.1256766513
 10
653.4957815496
 20
-354.2220942698
 10
653.0058310852
 20
-356.2927147452
 10
652.7579508011
 20
-358.2890044886
 10
652.7579508011
 20
-360.1641721604
 10
653.0058310852
 20
-361.8742654197
 10
653.4957815496
 20
-363.3792011299
 10
654.2163181706
 20
-364.6437048734
 10
655.1505521807
 20
-365.6381377544
 10
655.8340401459
 20
-366.1122266994
  0
LWPOLYLINE
  5
215
330
1F
100
AcDbEntity
  8
0
  6
Continuous
 62
     1
370
    25
100
AcDbPolyline
 90
       22
 70
   128
 43
0.0
 10
570.3784201396
 20
-514.1228866861
 10
569.3090211302
 20
-513.6608282465
 10
567.9460134925
 20
-513.42839551
 10
566.464240048
 20
-513.5167328277
 10
564.8984323103
 20
-513.9237696475
 10
563.2852914858
 20
-514.6399653716
 10
561.662628228
 20
-515.6485329792
 10
560.0684763884
 20
-516.9258325002
 10
558.5402015351
 20
-518.4419251167
 10
557.1136251352
 20
-520.1612749025
 10
555.8221849306
 20
-522.0435817561
 10
554.6961511849
 20
-524.044726
 10
553.7619171748
 20
-526.1178025094
 10
553.0413805537
 20
-528.2142201278
 10
552.5514300893
 20
-530.2848406033
 10
552.3035498052
 20
-532.2811303467
 10
552.3035498052
 20
-534.1562980185
 10
552.5514300893
 20
-535.8663912778
 10
553.0413805537
 20
-537.371326988
 10
553.7619171748
 20
-538.6358307315
 10
554.6961511849
 20
-539.6302636124
 10
555.3796391501
 20
-540.1043525575
  0
LWPOLYLINE
  5
216
330
1F
100
AcDbEntity
  8
0
  6
Continuous
 62
     1
370
    25
100
AcDbPolyline
 90
       22
 70
   128
 43
0.0
 10
610.6148092796
 20
-421.3573761885
 10
609.5454102702
 20
-420.8953177489
 10
608.1824026325
 20
-420.6628850124
 10
606.700629188
 20
-420.7512223301
 10
605.1348214504
 20
-421.1582591499
 10
603.5216806258
 20
-421.874454874
 10
601.899017368
 20
-422.8830224816
 10
600.3048655285
 20
-424.1603220026
 10
598.7765906751
 20
-425.6764146191
 10
597.3500142753
 20
-427.3957644049
 10
596.0585740706
 20
-429.2780712585
 10
594.9325403249
 20
-431.2792155024
 10
593.9983063148
 20
-433.3522920118
 10
593.2777696937
 20
-435.4487096302
 10
592.7878192293
 20
-437.5193301057
 10
592.5399389453
 20
-439.5156198491
 10
592.5399389453
 20
-441.3907875209
 10
592.7878192293
 20
-443.1008807802
 10
593.2777696937
 20
-444.6058164904
 10
593.9983063148
 20
-445.8703202339
 10
594.9325403249
 20
-446.8647531148
 10
595.6160282901
 20
-447.3388420599
  0
ENDSEC
  0
SECTION
  2
OBJECTS
  0
DICTIONARY
  5
C
330
0
100
AcDbDictionary
281
     1
  3
ACAD_GROUP
350
D
  3
ACAD_LAYOUT
350
1A
  3
ACAD_MLINESTYLE
350
17
  3
ACAD_PLOTSETTINGS
350
19
  3
ACAD_PLOTSTYLENAME
350
E
  3
ACAD_SCALELIST
350
47
  3
DWGPROPS
350
217
  0
DICTIONARY
  5
D
102
{ACAD_REACTORS
330
C
102
}
330
C
100
AcDbDictionary
281
     1
  0
DICTIONARY
  5
1A
102
{ACAD_REACTORS
330
C
102
}
330
C
100
AcDbDictionary
281
     1
  3
Layout1
350
1E
  3
Layout2
350
26
  3
Model
350
22
  0
DICTIONARY
  5
17
102
{ACAD_REACTORS
330
C
102
}
330
C
100
AcDbDictionary
281
     1
  3
Standard
350
18
  0
DICTIONARY
  5
19
102
{ACAD_REACTORS
330
C
102
}
330
C
100
AcDbDictionary
281
     1
  0
ACDBDICTIONARYWDFLT
  5
E
102
{ACAD_REACTORS
330
C
102
}
330
C
100
AcDbDictionary
281
     1
  3
Normal
350
F
100
AcDbDictionaryWithDefault
340
F
  0
DICTIONARY
  5
47
102
{ACAD_REACTORS
330
C
102
}
330
C
100
AcDbDictionary
281
     1
  3
A0
350
48
  3
A1
350
49
  3
A2
350
4A
  3
A3
350
4B
  3
A4
350
4C
  3
A5
350
4D
  3
A6
350
4E
  3
A7
350
4F
  3
A8
350
50
  3
A9
350
51
  3
B0
350
52
  3
B1
350
53
  3
B2
350
54
  3
B3
350
55
  3
B4
350
56
  3
B5
350
57
  3
B6
350
58
  3
B7
350
59
  3
B8
350
5A
  3
B9
350
5B
  3
C0
350
5C
  3
C1
350
5D
  3
C2
350
5E
  3
C3
350
5F
  3
C4
350
60
  3
C5
350
61
  3
C6
350
62
  3
C7
350
63
  3
C8
350
64
  3
C9
350
65
  3
D0
350
66
  3
D1
350
67
  3
D2
350
68
  0
XRECORD
  5
217
102
{ACAD_REACTORS
330
C
102
}
330
C
100
AcDbXrecord
280
     1
  1
DWGPROPS COOKIE
  2

  3

  4

  6

  7

  8
b.kav
  9

300
=
301
=
302
=
303
=
304
=
305
=
306
=
307
=
308
=
309
=
 40
0.0
 41
2459741.467579063
 42
2459741.467581736
  1

 90
        0
  0
LAYOUT
  5
1E
102
{ACAD_REACTORS
330
1A
102
}
330
1A
100
AcDbPlotSettings
  1

  2
none_device
  4

  6

 40
0.0
 41
0.0
 42
0.0
 43
0.0
 44
0.0
 45
0.0
 46
0.0
 47
0.0
 48
0.0
 49
0.0
140
0.0
141
0.0
142
1.0
143
1.0
 70
   688
 72
     1
 73
     0
 74
     5
  7

 75
    16
147
1.0
148
0.0
149
0.0
100
AcDbLayout
  1
Layout1
 70
     1
 71
     1
 10
0.0
 20
0.0
 11
420.0
 21
297.0
 12
0.0
 22
0.0
 32
0.0
 14
1.0000000000E+20
 24
1.0000000000E+20
 34
1.0000000000E+20
 15
-1.0000000000E+20
 25
-1.0000000000E+20
 35
-1.0000000000E+20
146
0.0
 13
0.0
 23
0.0
 33
0.0
 16
1.0
 26
0.0
 36
0.0
 17
0.0
 27
1.0
 37
0.0
 76
     0
330
1B
  0
LAYOUT
  5
26
102
{ACAD_REACTORS
330
1A
102
}
330
1A
100
AcDbPlotSettings
  1

  2
none_device
  4

  6

 40
0.0
 41
0.0
 42
0.0
 43
0.0
 44
0.0
 45
0.0
 46
0.0
 47
0.0
 48
0.0
 49
0.0
140
0.0
141
0.0
142
1.0
143
1.0
 70
   688
 72
     1
 73
     0
 74
     5
  7

 75
    16
147
1.0
148
0.0
149
0.0
100
AcDbLayout
  1
Layout2
 70
     1
 71
     2
 10
0.0
 20
0.0
 11
0.0
 21
0.0
 12
0.0
 22
0.0
 32
0.0
 14
0.0
 24
0.0
 34
0.0
 15
0.0
 25
0.0
 35
0.0
146
0.0
 13
0.0
 23
0.0
 33
0.0
 16
1.0
 26
0.0
 36
0.0
 17
0.0
 27
1.0
 37
0.0
 76
     0
330
23
  0
LAYOUT
  5
22
102
{ACAD_REACTORS
330
1A
102
}
330
1A
100
AcDbPlotSettings
  1

  2
none_device
  4
Letter_(8.50_x_11.00_Inches)
  6

 40
6.35
 41
6.35
 42
6.35000508
 43
6.35000508
 44
215.9
 45
279.4
 46
0.0
 47
0.0
 48
0.0
 49
0.0
140
0.0
141
0.0
142
1.0
143
1.0
 70
  1712
 72
     1
 73
     0
 74
     0
  7

 75
     0
147
1.0
148
0.0
149
0.0
100
AcDbLayout
  1
Model
 70
     1
 71
     0
 10
0.0
 20
0.0
 11
279.4
 21
215.9
 12
0.0
 22
0.0
 32
0.0
 14
0.0
 24
0.0
 34
0.0
 15
279.4
 25
215.9
 35
0.0
146
0.0
 13
0.0
 23
0.0
 33
0.0
 16
1.0
 26
0.0
 36
0.0
 17
0.0
 27
1.0
 37
0.0
 76
     0
330
1F
331
29
  0
MLINESTYLE
  5
18
102
{ACAD_REACTORS
330
17
102
}
330
17
100
AcDbMlineStyle
  2
Standard
 70
     0
  3

 62
   256
 51
90.0
 52
90.0
 71
     2
 49
0.5
 62
   256
  6
BYLAYER
 49
-0.5
 62
   256
  6
BYLAYER
  0
ACDBPLACEHOLDER
  5
F
102
{ACAD_REACTORS
330
E
102
}
330
E
  0
SCALE
  5
48
102
{ACAD_REACTORS
330
47
102
}
330
47
100
AcDbScale
 70
     0
300
1:1
140
1.0
141
1.0
290
     1
  0
SCALE
  5
49
102
{ACAD_REACTORS
330
47
102
}
330
47
100
AcDbScale
 70
     0
300
1:2
140
1.0
141
2.0
290
     0
  0
SCALE
  5
4A
102
{ACAD_REACTORS
330
47
102
}
330
47
100
AcDbScale
 70
     0
300
1:4
140
1.0
141
4.0
290
     0
  0
SCALE
  5
4B
102
{ACAD_REACTORS
330
47
102
}
330
47
100
AcDbScale
 70
     0
300
1:5
140
1.0
141
5.0
290
     0
  0
SCALE
  5
4C
102
{ACAD_REACTORS
330
47
102
}
330
47
100
AcDbScale
 70
     0
300
1:8
140
1.0
141
8.0
290
     0
  0
SCALE
  5
4D
102
{ACAD_REACTORS
330
47
102
}
330
47
100
AcDbScale
 70
     0
300
1:10
140
1.0
141
10.0
290
     0
  0
SCALE
  5
4E
102
{ACAD_REACTORS
330
47
102
}
330
47
100
AcDbScale
 70
     0
300
1:16
140
1.0
141
16.0
290
     0
  0
SCALE
  5
4F
102
{ACAD_REACTORS
330
47
102
}
330
47
100
AcDbScale
 70
     0
300
1:20
140
1.0
141
20.0
290
     0
  0
SCALE
  5
50
102
{ACAD_REACTORS
330
47
102
}
330
47
100
AcDbScale
 70
     0
300
1:30
140
1.0
141
30.0
290
     0
  0
SCALE
  5
51
102
{ACAD_REACTORS
330
47
102
}
330
47
100
AcDbScale
 70
     0
300
1:40
140
1.0
141
40.0
290
     0
  0
SCALE
  5
52
102
{ACAD_REACTORS
330
47
102
}
330
47
100
AcDbScale
 70
     0
300
1:50
140
1.0
141
50.0
290
     0
  0
SCALE
  5
53
102
{ACAD_REACTORS
330
47
102
}
330
47
100
AcDbScale
 70
     0
300
1:100
140
1.0
141
100.0
290
     0
  0
SCALE
  5
54
102
{ACAD_REACTORS
330
47
102
}
330
47
100
AcDbScale
 70
     0
300
2:1
140
2.0
141
1.0
290
     0
  0
SCALE
  5
55
102
{ACAD_REACTORS
330
47
102
}
330
47
100
AcDbScale
 70
     0
300
4:1
140
4.0
141
1.0
290
     0
  0
SCALE
  5
56
102
{ACAD_REACTORS
330
47
102
}
330
47
100
AcDbScale
 70
     0
300
8:1
140
8.0
141
1.0
290
     0
  0
SCALE
  5
57
102
{ACAD_REACTORS
330
47
102
}
330
47
100
AcDbScale
 70
     0
300
10:1
140
10.0
141
1.0
290
     0
  0
SCALE
  5
58
102
{ACAD_REACTORS
330
47
102
}
330
47
100
AcDbScale
 70
     0
300
100:1
140
100.0
141
1.0
290
     0
  0
SCALE
  5
59
102
{ACAD_REACTORS
330
47
102
}
330
47
100
AcDbScale
 70
     0
300
1/128" = 1'-0"
140
0.0078125
141
12.0
290
     0
  0
SCALE
  5
5A
102
{ACAD_REACTORS
330
47
102
}
330
47
100
AcDbScale
 70
     0
300
1/64" = 1'-0"
140
0.015625
141
12.0
290
     0
  0
SCALE
  5
5B
102
{ACAD_REACTORS
330
47
102
}
330
47
100
AcDbScale
 70
     0
300
1/32" = 1'-0"
140
0.03125
141
12.0
290
     0
  0
SCALE
  5
5C
102
{ACAD_REACTORS
330
47
102
}
330
47
100
AcDbScale
 70
     0
300
1/16" = 1'-0"
140
0.0625
141
12.0
290
     0
  0
SCALE
  5
5D
102
{ACAD_REACTORS
330
47
102
}
330
47
100
AcDbScale
 70
     0
300
3/32" = 1'-0"
140
0.09375
141
12.0
290
     0
  0
SCALE
  5
5E
102
{ACAD_REACTORS
330
47
102
}
330
47
100
AcDbScale
 70
     0
300
1/8" = 1'-0"
140
0.125
141
12.0
290
     0
  0
SCALE
  5
5F
102
{ACAD_REACTORS
330
47
102
}
330
47
100
AcDbScale
 70
     0
300
3/16" = 1'-0"
140
0.1875
141
12.0
290
     0
  0
SCALE
  5
60
102
{ACAD_REACTORS
330
47
102
}
330
47
100
AcDbScale
 70
     0
300
1/4" = 1'-0"
140
0.25
141
12.0
290
     0
  0
SCALE
  5
61
102
{ACAD_REACTORS
330
47
102
}
330
47
100
AcDbScale
 70
     0
300
3/8" = 1'-0"
140
0.375
141
12.0
290
     0
  0
SCALE
  5
62
102
{ACAD_REACTORS
330
47
102
}
330
47
100
AcDbScale
 70
     0
300
1/2" = 1'-0"
140
0.5
141
12.0
290
     0
  0
SCALE
  5
63
102
{ACAD_REACTORS
330
47
102
}
330
47
100
AcDbScale
 70
     0
300
3/4" = 1'-0"
140
0.75
141
12.0
290
     0
  0
SCALE
  5
64
102
{ACAD_REACTORS
330
47
102
}
330
47
100
AcDbScale
 70
     0
300
1" = 1'-0"
140
1.0
141
12.0
290
     0
  0
SCALE
  5
65
102
{ACAD_REACTORS
330
47
102
}
330
47
100
AcDbScale
 70
     0
300
1-1/2" = 1'-0"
140
1.5
141
12.0
290
     0
  0
SCALE
  5
66
102
{ACAD_REACTORS
330
47
102
}
330
47
100
AcDbScale
 70
     0
300
3" = 1'-0"
140
3.0
141
12.0
290
     0
  0
SCALE
  5
67
102
{ACAD_REACTORS
330
47
102
}
330
47
100
AcDbScale
 70
     0
300
6" = 1'-0"
140
6.0
141
12.0
290
     0
  0
SCALE
  5
68
102
{ACAD_REACTORS
330
47
102
}
330
47
100
AcDbScale
 70
     0
300
1'-0" = 1'-0"
140
12.0
141
12.0
290
     0
  0
ENDSEC
  0
EOF
